Sound will begin in 5 seconds

Exercises 2

01234567891011121314151617181920212223
E
B
G
D
A
E
B
0 1 2 3 4 5 6 7 8 9 10 11 12 13 14 15 16 17 18 19 20 21 22 23
Song Science #1: How Pros Use 6 Chords to Write Hit Songs
(/) Slide Up  (\) Slide Down  (h) Hammer On  (p) Pull Off  (b) Bend (r) Release (v) Vibrato

Stave 1:

E|--------------------------------------2--4--5--
B|-----------------------------2--3--5-----------
G|--------------------1--2--4--------------------
D|-----------0--2--4-----------------------------
A|--0--2--4--------------------------------------
E|-----------------------------------------------

Stave 2:

E|-----------------------------------2--4--6--7--
B|--------------------------2--4--5--------------
G|-----------------1--3--4-----------------------
D|--------1--2--4--------------------------------
A|--2--4-----------------------------------------
E|-----------------------------------------------

Stave 3:

E|-----------------------------0--1--3--5--7--8--
B|-----------------------1--3--------------------
G|--------------0--2--4--------------------------
D|-----0--2--3-----------------------------------
A|--3--------------------------------------------
E|-----------------------------------------------

Stave 4:

E|-----------------------------2--3--5--7--9--10--
B|--------------------2--3--5---------------------
G|-----------0--2--4------------------------------
D|--0--2--4---------------------------------------
A|------------------------------------------------
E|------------------------------------------------

Stave 5:

E|--------------------------------------------0--
B|--------------------------------------2--4-----
G|-----------------------------1--2--4-----------
D|--------------------1--2--4--------------------
A|-----------0--2--4-----------------------------
E|--0--2--4--------------------------------------

Stave 6:

E|-----------------------------------------0--1--
B|-----------------------------------1--3--------
G|--------------------------0--2--3--------------
D|-----------------0--2--3-----------------------
A|--------0--1--3--------------------------------
E|--1--3-----------------------------------------

Stave 7:

E|--------------------------------------0--2--3--
B|--------------------------------1--3-----------
G|-----------------------0--2--4-----------------
D|--------------0--2--4--------------------------
A|-----0--2--3-----------------------------------
E|--3--------------------------------------------

http://www.guitartabcreator.com
Guitar Tab Creator is intended to store guitar tab created through the tool. It currently does not support in-line text editing. Any text you place in here will be lost. If you need to comment on your tab, please use the "Tab Notes" section located below.