Sound will begin in 5 seconds

Exercises

01234567891011121314151617181920212223
E
B
G
D
A
E
B
0 1 2 3 4 5 6 7 8 9 10 11 12 13 14 15 16 17 18 19 20 21 22 23
Song Science #1: How Pros Use 6 Chords to Write Hit Songs
(/) Slide Up  (\) Slide Down  (h) Hammer On  (p) Pull Off  (b) Bend (r) Release (v) Vibrato

Stave 1:

E|------------------------------------------------0--10--12--12--10--0------------------------------------
B|--------------------------------------0--8--10------------------------10--8--0--------------------------
G|-----------------------------0--7--9--------------------------------------------9--7--0-----------------
D|--------------------0--5--7--------------------------------------------------------------7--5--0--------
A|-----------0--5--7--------------------------------------------------------------------------------7--5--
E|--0--3--5-----------------------------------------------------------------------------------------------

Stave 2:

E|--------------------------------------------------------------------------------------------------------
B|--------------------------------------------------------------------------------------------------------
G|--------------------------------------------------------------------------------------------------------
D|--------------------------------------------------------------------------------------------------------
A|-----------1--2--4-----------2--4--5-----------3--4--6-----------4--6--7-----------5--7--8-----------6--
E|--1--2--4-----------2--4--5-----------3--4--6-----------4--6--7-----------5--7--8-----------6--7--9-----

Stave 3:

E|-----------------------------------------------1--3--4--4--3--1-----------------------------------------
B|--------------------------------------1--2--4--------------------4--2--1--------------------------------
G|-----------------------------1--3--4--------------------------------------4--3--1-----------------------
D|--------------------1--2--4--------------------------------------------------------4--2--1--------------
A|-----------1--3--4--------------------------------------------------------------------------4--3--1-----
E|--1--2--4--------------------------------------------------------------------------------------------4--

Stave 4:

E|------------------------------------------------7--8--10--10--8--7---------------------------------
B|--------------------------------------7--8--10----------------------10--8--7-----------------------
G|-----------------------------4--5--7------------------------------------------7--5--4--------------
D|--------------------4--5--7------------------------------------------------------------7--5--4-----
A|-----------2--3--5------------------------------------------------------------------------------5--
E|--2--3--5------------------------------------------------------------------------------------------

Stave 5:

E|-----------------------------------------------10--7--10--
B|--------------------------------------6--9--6-------------
G|-----------------------------7--4--7----------------------
D|--------------------3--6--3-------------------------------
A|-----------5--2--5----------------------------------------
E|--1--4--1-------------------------------------------------

Stave 6:

E|-----------------------------------------------7--8--10--
B|--------------------------------------6--8--9------------
G|-----------------------------4--5--7---------------------
D|--------------------3--5--6------------------------------
A|-----------2--3--5---------------------------------------
E|--1--3--4------------------------------------------------

Stave 7:

E|--------------------------------------------------------------------------
B|--------------------------------------------------------------------------
G|--------------------------------------------------------------------------
D|--------------------------------------------------------------------------
A|--------------------------------------------------------------------------
E|--1--2--3--4-----2--3--4--5-----3--4--5--6-----4--5--6--7-----5--6--7--8--

Stave 8:

E|-----------------------------------------------3--5--7--
B|--------------------------------------3--5--6-----------
G|-----------------------------2--4--5--------------------
D|--------------------2--3--5-----------------------------
A|-----------2--3--5--------------------------------------
E|--1--3--5-----------------------------------------------

Stave 9:

E|-----------------------------------------------5--7--8--
B|--------------------------------------5--6--8-----------
G|-----------------------------4--5--7--------------------
D|--------------------3--5--7-----------------------------
A|-----------3--5--7--------------------------------------
E|--3--5--7-----------------------------------------------

Stave 10:

E|------------------------------------------------7--8--10--
B|--------------------------------------6--8--10------------
G|-----------------------------5--7--9----------------------
D|--------------------5--7--9-------------------------------
A|-----------5--7--8----------------------------------------
E|--5--7--8-------------------------------------------------

Stave 11:

E|-----------------------------------------------------8--10--12--
B|------------------------------------------8--10--12-------------
G|--------------------------------7--9--10------------------------
D|----------------------7--9--10----------------------------------
A|------------7--8--10--------------------------------------------
E|--7--8--10------------------------------------------------------

Stave 12:

E|----------------------------------------------------------10--12--13--
B|----------------------------------------------10--12--13--------------
G|-----------------------------------9--10--12--------------------------
D|------------------------9--10--12-------------------------------------
A|-------------8--10--12------------------------------------------------
E|--8--10--12-----------------------------------------------------------

Stave 13:

E|--------------------------------------------------------------12--13--15--
B|--------------------------------------------------12--13--15--------------
G|--------------------------------------10--12--14--------------------------
D|--------------------------10--12--14--------------------------------------
A|--------------10--12--14--------------------------------------------------
E|--10--12--13--------------------------------------------------------------

Stave 14:

E|--------------------------------------------------------------13--15--17--
B|--------------------------------------------------13--15--17--------------
G|--------------------------------------12--14--16--------------------------
D|--------------------------12--14--15--------------------------------------
A|--------------12--14--15--------------------------------------------------
E|--12--13--15--------------------------------------------------------------

Stave 15:

E|-----------------------------------------------1--3--5--
B|--------------------------------------1--3--5-----------
G|-----------------------------1--3--5--------------------
D|--------------------1--3--5-----------------------------
A|-----------1--3--5--------------------------------------
E|--1--3--5-----------------------------------------------

Stave 16:

E|-----------------------------------------------5--7--8----------------------
B|--------------------------------------5--7--8-------------------------------
G|-----------------------------2--4--5--------------------7--9--10------------
D|--------------------2--4--5---------------------------------------7--9--10--
A|-----------5--7--8----------------------------------------------------------
E|--5--7--8-------------------------------------------------------------------

Stave 17:

E|-----------------------------------------------------------------3--5--7--
B|-----------------------------------------------3--5--7--------------------
G|-----------------------------3--5--7--------------------3--5--7-----------
D|-----------3--5--7--------------------3--5--7-----------------------------
A|--------------------3--5--7-----------------------------------------------
E|--3--5--7-----------------------------------------------------------------

Stave 18:

E|-------------------------------------------------------11--12--15--
B|-------------------------------------------10--13--15--------------
G|---------------------------------8--9--12--------------------------
D|----------------------7--10--12------------------------------------
A|------------6--7--10-----------------------------------------------
E|--5--8--10---------------------------------------------------------

http://www.guitartabcreator.com
Guitar Tab Creator is intended to store guitar tab created through the tool. It currently does not support in-line text editing. Any text you place in here will be lost. If you need to comment on your tab, please use the "Tab Notes" section located below.