Sound will begin in 5 seconds

Your Heart

01234567891011121314151617181920212223
E
B
G
D
A
E
B
0 1 2 3 4 5 6 7 8 9 10 11 12 13 14 15 16 17 18 19 20 21 22 23
Song Science #1: How Pros Use 6 Chords to Write Hit Songs
(/) Slide Up  (\) Slide Down  (h) Hammer On  (p) Pull Off  (b) Bend (r) Release (v) Vibrato

(W|WW) Whole (H|HH) Half (Q|QQ) Quarter (E|EE) 8th (S|SS) 16th (T|TT) 32nd (X|XX) 64th

Stave 1:
t: E E
D|--------
A|--------
F|--------
C|--5--9--
G|--5--9--
C|--5--9--

Stave 2:
t: EE EE E W E E E E E E EE E E E
D|----------------|---------------------------------
A|----------------|---------------------------------
F|--11--14--7-----|---------------------------------
C|--9---12--5--0--|---------------------------------
G|--9---12--5--0--|--------------------10--9--7--5--
C|--9---12--5--0--|--0--0--0--0--0--0---------------

Stave 3:
t: E EE E E E EE E E QQ QQ Q Q
D|--------------------------------------------
A|--------------------------------------------
F|------------------------------11--14--7-----
C|----9--12--5--0--9--12--5--0--9---12--5--0--
G|----9--12--5--0--9--12--5--0--9---12--5--0--
C|----9--12--5--0--9--12--5--0--9---12--5--0--

Stave 4:
t: EE EE E E E EE E E
D|--_------------|---------------
A|--_------------|---------------
F|--11--14--7-----|--7--11--7-----
C|--9---12--5--2--|--5--9---5--2--
G|--9---12--5--2--|--5--9---5--2--
C|--9---12--5--2--|--5--9---5--2--

Stave 5:
t: E E E E E E E E E E E E E E E E
D|-------------7-----------7-----------7-----|-----------
A|-------7-----------7-----------7-----------|-----------
F|----6-----6-----6-----6--------------------|-----------
C|----------------------------6-----6--------|--5--0--2--
G|----------------------------------------6--|--5--0--2--
C|-------------------------------------------|--5--0--2--

Stave 6:
t: E E E E E E E E E EE E E E E E E E E E E
D|------------------------------------------------------------|-----
A|------------------------------------------------------------|-----
F|------------------------------------------------------------|-----
C|---------------------------------------------------------5--|--0--
G|--------------------------9--10--9--7-----------------7--5--|--0--
C|--0--0--0--0--0--0--0--0---------------0--0--0--0--0-----5--|--0--

Stave 7:
t:
D|--
A|--
F|--
C|--
G|--
C|--

http://www.guitartabcreator.com
Guitar Tab Creator is intended to store guitar tab created through the tool. It currently does not support in-line text editing. Any text you place in here will be lost. If you need to comment on your tab, please use the "Tab Notes" section located below.