Skip to main content

B'sheim Hashem

0 1 2 3 4 5 6 7 8 9 10 11 12 13 14 15 16 17 18 19 20 21 22 23
E
B
G
D
A
E
0 1 2 3 4 5 6 7 8 9 10 11 12 13 14 15 16 17 18 19 20 21 22 23
(/) Slide Up  (\) Slide Down  (h) Hammer On  (p) Pull Off  (b) Bend (r) Release (v) Vibrato

Stave 1: C     G             Am           G               C            G                C           G                                       

E|--------0--|-----------|-----------|-----------------|--------0--|-----------------|--3--1--0--|-----------|--
B|--1--3-----|--3--1--0--|-----0--1--|--0--------0--0--|--1--3-----|--0--------0--0--|-----------|--3--1--0--|--
G|-----------|-----------|--2--------|-----------------|-----------|-----------------|-----------|-----------|--
D|-----------|-----------|-----------|--------0--------|-----------|--------0--------|-----------|-----------|--
A|-----------|-----------|-----------|-----2-----------|-----------|-----2-----------|-----------|-----------|--
E|-----------|-----------|-----------|-----------------|-----------|-----------------|-----------|-----------|--

Stave 2:C      G                Am            Em            G                 F            C                                               

E|--------0--|-----------------|-----------|--------------|--------------3--|--1--0-----|--------------|-----|-----------0--|--
B|--1--3-----|--3--------1--0--|-----0--1--|--0-----------|-----------3-----|--------3--|--1--------0--|--1--|--------1-----|--
G|-----------|-----------------|--2--------|-----------2--|--0-----0--------|-----------|--------0-----|-----|-----0--------|--
D|-----------|--------0--------|-----------|--------2-----|-----------------|-----------|--------------|-----|--------------|--
A|-----------|-----2-----------|-----------|-----2--------|-----------------|-----------|-----3--------|-----|--3-----------|--
E|-----------|-----------------|-----------|--------------|-----3-----------|-----------|--------------|-----|--------------|--

							https://www.guitartabcreator.com
Chords

Instruments
{"strings":[[[".",".",0,"|",".",".",".","|",".",".",".","|",".",".",".",".",".","|",".",".",0,"|",".",".",".",".",".","|",3,1,0,"|",".",".",".","|"],[1,3,".","|",3,1,0,"|",".",0,1,"|",0,".",".",0,0,"|",1,3,".","|",0,".",".",0,0,"|",".",".",".","|",3,1,0,"|"],[".",".",".","|",".",".",".","|",2,".",".","|",".",".",".",".",".","|",".",".",".","|",".",".",".",".",".","|",".",".",".","|",".",".",".","|"],[".",".",".","|",".",".",".","|",".",".",".","|",".",".",0,".",".","|",".",".",".","|",".",".",0,".",".","|",".",".",".","|",".",".",".","|"],[".",".",".","|",".",".",".","|",".",".",".","|",".",2,".",".",".","|",".",".",".","|",".",2,".",".",".","|",".",".",".","|",".",".",".","|"],[".",".",".","|",".",".",".","|",".",".",".","|",".",".",".",".",".","|",".",".",".","|",".",".",".",".",".","|",".",".",".","|",".",".",".","|"]],[[".",".",0,"|",".",".",".",".",".","|",".",".",".","|",".",".",".",".","|",".",".",".",".",3,"|",1,0,".","|",".",".",".",".","|",".","|",".",".",".",0,"|"],[1,3,".","|",3,".",".",1,0,"|",".",0,1,"|",0,".",".",".","|",".",".",".",3,".","|",".",".",3,"|",1,".",".",0,"|",1,"|",".",".",1,".","|"],[".",".",".","|",".",".",".",".",".","|",2,".",".","|",".",".",".",2,"|",0,".",0,".",".","|",".",".",".","|",".",".",0,".","|",".","|",".",0,".",".","|"],[".",".",".","|",".",".",0,".",".","|",".",".",".","|",".",".",2,".","|",".",".",".",".",".","|",".",".",".","|",".",".",".",".","|",".","|",".",".",".",".","|"],[".",".",".","|",".",2,".",".",".","|",".",".",".","|",".",2,".",".","|",".",".",".",".",".","|",".",".",".","|",".",3,".",".","|",".","|",3,".",".",".","|"],[".",".",".","|",".",".",".",".",".","|",".",".",".","|",".",".",".",".","|",".",3,".",".",".","|",".",".",".","|",".",".",".",".","|",".","|",".",".",".",".","|"]]],"numberofstrings":6,"notes":["E","B","G","D","A","E","B"],"capo":0,"stringnotes":["E4","B3","G3","D3","A2","E2"],"comments":["Stave 1: C G Am G C G C G ","Stave 2:C G Am Em G F C "],"timing":[["Q","Q","Q",null,"Q","Q","Q",null,"Q","Q","Q",null,"Q","Q","Q","Q","Q",null,"Q","Q","Q",null,"Q","Q","Q","Q","Q",null,"Q","Q","Q",null,"Q","Q","Q"],["Q","Q","Q",null,"Q","Q","Q","Q","Q",null,"Q","Q","Q",null,"Q","Q","Q","Q",null,"Q","Q","Q","Q","Q",null,"Q","Q","Q",null,"Q","Q","Q","Q",null,"W",null,"Q","Q","Q","Q"]],"timingvisible":false,"tabcounter":41,"stave":1,"totalstaves":2,"instrument":"6guitar","selectedtuning":"6_standard","version":"13"}
Submitted by RachaelLeah on