Sound will begin in 5 seconds

Song 4

Chords
01234567891011121314151617181920212223
E
B
G
D
A
E
B
0 1 2 3 4 5 6 7 8 9 10 11 12 13 14 15 16 17 18 19 20 21 22 23
Song Science #1: How Pros Use 6 Chords to Write Hit Songs
(/) Slide Up  (\) Slide Down  (h) Hammer On  (p) Pull Off  (b) Bend (r) Release (v) Vibrato

Stave 1:

D|---------------------------------------------------------------------------------------------
A|---------------------------------------------------------------------------------------------
F|---------------------------------------------------------------------------------------------
C|-------------------------------9-------------------------------------------9--------2-----1--
G|--7--------10-----10-----7-----7-----10--9--7-----7-----10-----9--------7-----7--------------
D|--0--0--0--0---0--0---0--0--0-----0--0---0--0--0-----0------0-----0--8-----------3-----2-----
G|---------------------------------------------------------------------------------------------

Stave 2:

D|-----------------------------------------------------------------------------------------------
A|-----------------------------------------------------------------------------------------------
F|-----------------------------------------------------------------------------------------------
C|-----------------------------------------------------------------------------------------------
G|--7--10--------------------------7-----------10-----------7-----7--10--------------------------
D|--0--0---0--0--0--0--0--0--0--0--0--0--0--0--0---0--0--0--0--0--0--0---0--0--0--0--0--0--0--0--
G|-----------------------------------------------------------------------------------------------

Stave 3:

D|-----------------------------------------------------------------------------
A|-----------------------------------------------------------------------------
F|-----------------------------------------------------------------------------
C|-----------------------------------------------------------------------------
G|--10-----------9-----------7-----7--------10-----7-----7--------9-----10-----
D|------0--0--0-----0--0--0-----0--8--8--8--8---8--8--8--7--7--7--7--7--7---7--
G|-----------------------------------------------------------------------------

Stave 4:

D|--------------------------------------------------------------------------------------------------------
A|--------------------------------------------------------------------------------------------------------
F|--------------------------------------------------------------------------------------------------------
C|--2--------2--------4--5--5--7-----------2--------2--------4--5--5--7-----------------------------------
G|--2--------2-----------------------------2--------2-----------------------------10--------10--------10--
D|--0--0--0--0--0--0--2--3--3--5--5--3--2--0--0--0--0--0--0--2--3--3--5--5--3--2--10--------10--------10--
G|--------------------------------------------------------------------------------8---8--8--8---8--8--8---

Stave 5:

D|--------------------------------------------------------------------
A|--------------------------------------------------------------------
F|--------------------------------------------------------------------
C|-----3-----5-----3-----9--------9-----14--12--10--------------------
G|-----------------------9--------9-----------------14--12--10--------
D|--8-----0-----0-----0--7--7--7--7--7--------------------------7--0--
G|--------------------------------------------------------------------

http://www.guitartabcreator.com
Guitar Tab Creator is intended to store guitar tab created through the tool. It currently does not support in-line text editing. Any text you place in here will be lost. If you need to comment on your tab, please use the "Tab Notes" section located below.