Sound will begin in 5 seconds

Song 3

Chords
01234567891011121314151617181920212223
E
B
G
D
A
E
B
0 1 2 3 4 5 6 7 8 9 10 11 12 13 14 15 16 17 18 19 20 21 22 23
Song Science #1: How Pros Use 6 Chords to Write Hit Songs
(/) Slide Up  (\) Slide Down  (h) Hammer On  (p) Pull Off  (b) Bend (r) Release (v) Vibrato

Stave 1:

D|-----------------------------------------------------------------------------
A|-----------------------------------------------------------------------------
F|-----------------------------------------------------------------------------
C|-----------------------------------------------------------------------------
G|-----5-----5-----5-----5-----5-----5-----4-----4-----4-----0-----0-----1--4--
D|-----------------------------------------------------------------------------
G|--5-----5-----5-----5-----5-----5-----4-----4-----4-----0-----0-----0--------

Stave 2:

D|--------------------------------------------------------------
A|--------------------------------------------------------------
F|--------------------------------------------------------3--6--
C|--------------------------------------------------------------
G|--5--5--5--8--7--5--5--5--8--7--4--------4--------------1--4--
D|--5--5--5--5--5--5--5--5--5--5--4-----------6-----------------
G|--5--5--5--5--5--5--5--5--5--5--4--4--4--------0--0--0--------

Stave 3:

D|--------------------------------------------------------------------------------------------
A|--------------------------------------------------------------------------------------------
F|--------------------------------------------------------------------------------------------
C|--------------------------------------------------------------------------------------------
G|-----------5-----5-----8--7-----5-----5-----8--7-----4-----4-----4--------0-----0-----1--4--
D|--------------------------------------------------------------------6-----------------------
G|--------5-----5-----5--------5-----5-----5--------4-----4-----4--------0-----0-----0--------

Stave 4:

D|------------------------------------------------------------------------------------------------
A|------------------------------------------------------------------------------------------------
F|------------------------------------------------------------------------------------------------
C|------------------------------------------------------------------------------------------------
G|--5--4--1--1--4--5--5-------------------------5--4--1--1--4--5-----5--4--1----------------------
D|-------------------------------------------------------------------------------------------5/6--
G|--5--4--1--1--4--5--5-----5--4--5--7--5--8\7--5--4--1--1--4--5-----5--4--1--5--4--5--7--5-------

Stave 5:

D|-----------------------------------------------------------------------------------------------------------
A|-----------------------------------------------------------------------------------------------------------
F|-----------------------------------------------------------------------------------------------------------
C|-----------------------------------------------------------------------------------------------------7-----
G|--------------------------------------------------------------------------------------4-----5--------------
D|--------5-----6-----5-----5--6--5--------------------------5-----6--------5--6--8--5-----------------------
G|--5--5-----5-----5-----5-----------8--7--5--0--4--0--5--5-----5-----5--------------------0-----0--0--------

Stave 6:

D|-----------------------------------------------------------------------------------------------
A|-----------------------------------------8--4--5--7--5--4--------------------------------------
F|--------------------6-----7-----7--6-----------------------7--6--7--6--------------------------
C|-----8-----5--7--------------------------------------------------------8--7--5-----------------
G|--0-----0--------0-----0-----0--------0-----------------------------------------7--8--5--4--5--
D|-----------------------------------------------------------------------------------------------
G|-----------------------------------------------------------------------------------------------

Stave 7:

D|-----------------------------------------------------------------------------------------------
A|-----------------------------------------------------------------------------------------------
F|-----------------------------------------------------------------------------------------------
C|-----------------------------------------------------------------------------------------------
G|-----------------------------------------------------------------------------------------------
D|--------------------6--6--6--6--5--5--5--3--3--3--3--1--1--1--1--1--0--0--0--0--1--1--1--1--1--
G|--5--5--5--5--5--5-----------------------------------------------------------------------------

Stave 8:

D|---------------------------------------------------------------------------------------------------------------
A|---------------------------------------------------------------------------------------------------------------
F|---------------------------------------------------------------------------------------------------------------
C|---------------------------------------------------------------------------------------------------------------
G|---------------------------------------------------------------------------------------------------------------
D|--------------------6--6--6--6--5--5--5--5--6--6--6--6--9--9--9--9--9--10--10--10--10--10--12--12--12--12--12--
G|--5--5--5--5--5--5---------------------------------------------------------------------------------------------

Stave 9:

D|-------------------------------------------------------------------------------------------------------
A|-------------------------------------------------------------------------------------------------------
F|-------------------------------------------------------------------------------------------------------
C|-------------------------------------------------------------------------------------------------------
G|-----8--7--5--3--0--3----------------------------------------------------------------------------------
D|--5--6--5--3--1--0--1--6--6--6--6--5--5--5--5--6--6--6--6--9--9--9--9--10--10--10--10--12--12--12--12--
G|--5----------------------------------------------------------------------------------------------------

Stave 10:

D|--------------------------------------------------------------------------------------------------------------
A|--------------------------------------------------------------------------------------------------------------
F|--------------------------------------------------------------------------------------------------------------
C|--------------------------------------------------------------------------------------------------------------
G|--------------------8--8--8--7--7--7--------------------5--5--5--7--7--7--------------------5--5--5--4--4--4--
D|--------------------------------------------------------------------------------------------------------------
G|--5--5--5--5--5--5--------------------4--4--4--4--4--4--------------------1--1--1--1--1--1--------------------

Stave 11:

D|-----------------------------------------------
A|-----------------------------------------------
F|-----------------------------------------------
C|-----------------------------------------------
G|--------------------------4--4--4--5--5--5--8--
D|--------------------------------------------5--
G|--0--0--0--0--0--0--------------------------5--

http://www.guitartabcreator.com
Guitar Tab Creator is intended to store guitar tab created through the tool. It currently does not support in-line text editing. Any text you place in here will be lost. If you need to comment on your tab, please use the "Tab Notes" section located below.