Expulsion Pt. 2

01234567891011121314151617181920212223
E
B
G
D
A
E
B
0 1 2 3 4 5 6 7 8 9 10 11 12 13 14 15 16 17 18 19 20 21 22 23
(/) Slide Up  (\) Slide Down  (h) Hammer On  (p) Pull Off  (b) Bend (r) Release (v) Vibrato

Stave 1:

D|--23------21--23------21--20--23------21--20--19--18--17--16--15--14--13------11------9--------------------------------------------------------
B|------22----------22--------------22--------------------------------------12------10-----8-----------------------------------------------------
G|--------------------------------------------------------------------------------------------7--------------------------------------------------
D|-----------------------------------------------------------------------------------------------6-----------------------------------23----------
A|--------------------------------------------------------------------------------------------------5-----3-----1------------------------22------
D|-----------------------------------------------------------------------------------------------------4-----2-----0--0--0--0--0--0----------23--

Stave 2:

D|--------10------------10------------10----------13--------10------------10------------10----------13--------10----------13--------10------
B|-----9------11-----9------11-----9------11--12---------9------11-----9------11-----9------11--12---------9------11--12---------9------11--
G|--8-------------8-------------8---------------------8-------------8-------------8---------------------8---------------------8-------------
D|------------------------------------------------------------------------------------------------------------------------------------------
A|------------------------------------------------------------------------------------------------------------------------------------------
D|------------------------------------------------------------------------------------------------------------------------------------------

Stave 3:

D|---------------------------------------------------------------------------------------------------------------------------------------------
B|---------------------------------------------------------------------------------------------------------------------------------------------
G|--10-----------9-----------8-----------7-----------6-----------5-----------4-----------3-----------------------------------------------------
D|------9-----------8-----------7-----------6-----------5-----------4-----------3-----------2--------------------------------------------------
A|---------8-----------7-----------6-----------5-----------4-----------3-----------2-----------1-----------------------------------------------
D|------------7-----------6-----------5-----------4-----------3-----------2-----------1-----------0--0--1--2--7--6--5--12--16--14--13--15--12--

Stave 4:

D|--23--23--23--23--23--23--23--23--23--23--20--20--20--20--20--20--20--20--20--20--22--22--22--22--22--22--21--21--21--21--21--21--18--18--17--
B|----------------------------------------------------------------------------------------------------------------------------------------------
G|----------------------------------------------------------------------------------------------------------------------------------------------
D|----------------------------------------------------------------------------------------------------------------------------------------------
A|----------------------------------------------------------------------------------------------------------------------------------------------
D|----------------------------------------------------------------------------------------------------------------------------------------------

Stave 5:

D|--16--16--16--16--16--15--15--15--20--20--20--18--18--18--23--23--23--17--17--17--17--22--22--22--22--22--19--19--19--19--19--21--21--21--19--
B|----------------------------------------------------------------------------------------------------------------------------------------------
G|----------------------------------------------------------------------------------------------------------------------------------------------
D|----------------------------------------------------------------------------------------------------------------------------------------------
A|----------------------------------------------------------------------------------------------------------------------------------------------
D|----------------------------------------------------------------------------------------------------------------------------------------------

Stave 6:

D|----------14--15------------------14--15------------------14--15------------------15--14------------------14--15----------1--2-----0------------
B|------13----------16----------13----------16----------13----------16----------16----------13----------13----------16------3--4-----0------------
G|--12------------------17--12------------------17--12------------------17--17------------------12--12------------------17--2--3-----0------------
D|--------------------------------------------------------------------------------------------------------------------------0--1--0--0------------
A|--------------------------------------------------------------------------------------------------------------------------1--2--0--0------------
D|--------------------------------------------------------------------------------------------------------------------------4--5--0--0--0v--0--0--

							http://www.guitartabcreator.com
Chords

Tab Notes
play in 255 BPM for best effect Pt.2 of Expulsion
genre
Instruments
{"strings":[[[23,".",21,23,".",21,20,23,".",21,20,19,18,17,16,15,14,13,".",11,".",9,".",".",".",".",".",".",".",".",".",".",".",".",".",".",".",".","."],[".",22,".",".",22,".",".",".",22,".",".",".",".",".",".",".",".",".",12,".",10,".",8,".",".",".",".",".",".",".",".",".",".",".",".",".",".",".","."],[".",".",".",".",".",".",".",".",".",".",".",".",".",".",".",".",".",".",".",".",".",".",".",7,".",".",".",".",".",".",".",".",".",".",".",".",".",".","."],[".",".",".",".",".",".",".",".",".",".",".",".",".",".",".",".",".",".",".",".",".",".",".",".",6,".",".",".",".",".",".",".",".",".",".",".",23,".","."],[".",".",".",".",".",".",".",".",".",".",".",".",".",".",".",".",".",".",".",".",".",".",".",".",".",5,".",3,".",1,".",".",".",".",".",".",".",22,"."],[".",".",".",".",".",".",".",".",".",".",".",".",".",".",".",".",".",".",".",".",".",".",".",".",".",".",4,".",2,".",0,0,0,0,0,0,".",".",23]],[[".",".",10,".",".",".",10,".",".",".",10,".",".",13,".",".",10,".",".",".",10,".",".",".",10,".",".",13,".",".",10,".",".",13,".",".",10,"."],[".",9,".",11,".",9,".",11,".",9,".",11,12,".",".",9,".",11,".",9,".",11,".",9,".",11,12,".",".",9,".",11,12,".",".",9,".",11],[8,".",".",".",8,".",".",".",8,".",".",".",".",".",8,".",".",".",8,".",".",".",8,".",".",".",".",".",8,".",".",".",".",".",8,".",".","."],[".",".",".",".",".",".",".",".",".",".",".",".",".",".",".",".",".",".",".",".",".",".",".",".",".",".",".",".",".",".",".",".",".",".",".",".",".","."],[".",".",".",".",".",".",".",".",".",".",".",".",".",".",".",".",".",".",".",".",".",".",".",".",".",".",".",".",".",".",".",".",".",".",".",".",".","."],[".",".",".",".",".",".",".",".",".",".",".",".",".",".",".",".",".",".",".",".",".",".",".",".",".",".",".",".",".",".",".",".",".",".",".",".",".","."]],[[".",".",".",".",".",".",".",".",".",".",".",".",".",".",".",".",".",".",".",".",".",".",".",".",".",".",".",".",".",".",".",".",".",".",".",".",".",".",".",".",".",".",".","."],[".",".",".",".",".",".",".",".",".",".",".",".",".",".",".",".",".",".",".",".",".",".",".",".",".",".",".",".",".",".",".",".",".",".",".",".",".",".",".",".",".",".",".","."],[10,".",".",".",9,".",".",".",8,".",".",".",7,".",".",".",6,".",".",".",5,".",".",".",4,".",".",".",3,".",".",".",".",".",".",".",".",".",".",".",".",".",".","."],[".",9,".",".",".",8,".",".",".",7,".",".",".",6,".",".",".",5,".",".",".",4,".",".",".",3,".",".",".",2,".",".",".",".",".",".",".",".",".",".",".",".",".","."],[".",".",8,".",".",".",7,".",".",".",6,".",".",".",5,".",".",".",4,".",".",".",3,".",".",".",2,".",".",".",1,".",".",".",".",".",".",".",".",".",".",".",".","."],[".",".",".",7,".",".",".",6,".",".",".",5,".",".",".",4,".",".",".",3,".",".",".",2,".",".",".",1,".",".",".",0,0,1,2,7,6,5,12,16,14,13,15,12]],[[23,23,23,23,23,23,23,23,23,23,20,20,20,20,20,20,20,20,20,20,22,22,22,22,22,22,21,21,21,21,21,21,18,18,17],[".",".",".",".",".",".",".",".",".",".",".",".",".",".",".",".",".",".",".",".",".",".",".",".",".",".",".",".",".",".",".",".",".",".","."],[".",".",".",".",".",".",".",".",".",".",".",".",".",".",".",".",".",".",".",".",".",".",".",".",".",".",".",".",".",".",".",".",".",".","."],[".",".",".",".",".",".",".",".",".",".",".",".",".",".",".",".",".",".",".",".",".",".",".",".",".",".",".",".",".",".",".",".",".",".","."],[".",".",".",".",".",".",".",".",".",".",".",".",".",".",".",".",".",".",".",".",".",".",".",".",".",".",".",".",".",".",".",".",".",".","."],[".",".",".",".",".",".",".",".",".",".",".",".",".",".",".",".",".",".",".",".",".",".",".",".",".",".",".",".",".",".",".",".",".",".","."]],[[16,16,16,16,16,15,15,15,20,20,20,18,18,18,23,23,23,17,17,17,17,22,22,22,22,22,19,19,19,19,19,21,21,21,19],[".",".",".",".",".",".",".",".",".",".",".",".",".",".",".",".",".",".",".",".",".",".",".",".",".",".",".",".",".",".",".",".",".",".","."],[".",".",".",".",".",".",".",".",".",".",".",".",".",".",".",".",".",".",".",".",".",".",".",".",".",".",".",".",".",".",".",".",".",".","."],[".",".",".",".",".",".",".",".",".",".",".",".",".",".",".",".",".",".",".",".",".",".",".",".",".",".",".",".",".",".",".",".",".",".","."],[".",".",".",".",".",".",".",".",".",".",".",".",".",".",".",".",".",".",".",".",".",".",".",".",".",".",".",".",".",".",".",".",".",".","."],[".",".",".",".",".",".",".",".",".",".",".",".",".",".",".",".",".",".",".",".",".",".",".",".",".",".",".",".",".",".",".",".",".",".","."]],[[".",".",14,15,".",".",".",".",14,15,".",".",".",".",14,15,".",".",".",".",15,14,".",".",".",".",14,15,".",".",1,2,".",0,".",".",".","."],[".",13,".",".",16,".",".",13,".",".",16,".",".",13,".",".",16,".",".",16,".",".",13,".",".",13,".",".",16,".",3,4,".",0,".",".",".","."],[12,".",".",".",".",17,12,".",".",".",".",17,12,".",".",".",".",17,17,".",".",".",".",12,12,".",".",".",".",17,2,3,".",0,".",".",".","."],[".",".",".",".",".",".",".",".",".",".",".",".",".",".",".",".",".",".",".",".",".",".",".",".",".",".",".",".",".",".",0,1,0,0,".",".",".","."],[".",".",".",".",".",".",".",".",".",".",".",".",".",".",".",".",".",".",".",".",".",".",".",".",".",".",".",".",".",".",1,2,0,0,".",".",".","."],[".",".",".",".",".",".",".",".",".",".",".",".",".",".",".",".",".",".",".",".",".",".",".",".",".",".",".",".",".",".",4,5,0,0,0,"v",0,0]]],"numberofstrings":6,"notes":["D","B","G","D","A","D"],"capo":0,"stringnotes":["D3","B2","G2","D2","A1","D1"],"comments":["Stave 1:","Stave 2:","Stave 3:","Stave 4:","Stave 5:","Stave 6:"],"timing":[["W","W","W","W","W","W","W","W","W","W","W","W","W","W","W","W","W","W","W","W","W","W","W","W","W","W","W","W","W","W","W","W","W","W","W","W","W","W","W"],["W","W","W","W","W","W","W","W","W","W","W","W","W","W","W","W","W","W","W","W","W","W","W","W","W","W","W","W","W","W","W","W","W","W","W","W","W","W"],["W","W","W","W","W","W","W","W","W","W","W","W","W","W","W","W","W","W","W","W","W","W","W","W","W","W","W","W","W","W","W","W","W","W","W","W","W","W","W","W","W","W","W","W","W"],["W","W","W","W","W","W","W","W","W","W","W","W","W","W","W","W","W","W","W","W","W","W","W","W","W","W","W","W","W","W","W","W","W","W","W"],["W","W","W","W","W","W","W","W","W","W","W","W","W","W","W","W","W","W","W","W","W","W","W","W","W","W","W","W","W","W","W","W","W","W","W"],["W","W","W","W","W","W","W","W","W","W","W","W","W","W","W","W","W","W","W","W","W","W","W","W","W","W","W","W","W","W","W","W","W","W","W",null,"W","W"]],"timingvisible":false,"tabcounter":38,"stave":5,"totalstaves":6,"instrument":"6guitar","selectedtuning":"Double Drop D","version":"13"}

Member for

4 months
About Me
I make stuff when bored
Submitted by R3Dlol on Tue, 2021-02-23 07:25