Girl with Dreams Melody Tab

Chords

01234567891011121314151617181920212223
E
B
G
D
A
E
B
0 1 2 3 4 5 6 7 8 9 10 11 12 13 14 15 16 17 18 19 20 21 22 23
(/) Slide Up  (\) Slide Down  (h) Hammer On  (p) Pull Off  (b) Bend (r) Release (v) Vibrato

Stave 1:

E|------10------10--9--5-----9--5-----7--5-----7--5--------------------------
B|--10------10------------5--------5-----------------------------------------
G|------------------------------------------7--------7--9--11h11--9--9--7--9h
D|---------------------------------------------------------------------------
A|---------------------------------------------------------------------------
E|---------------------------------------------------------------------------

Stave 2:

E|----------10--5-----9--5------------------
B|------10---------5----------------10--12--
G|--11----------------------11--11----------
D|------------------------------------------
A|------------------------------------------
E|------------------------------------------

							http://www.guitartabcreator.com
Instruments
{"strings":[[[".",10,".",10,9,5,".",9,5,".",7,5,".",7,5,".",".",".",".",".",".",".",".",".","."],[10,".",10,".",".",".",5,".",".",5,".",".",".",".",".",".",".",".",".",".",".",".",".",".","."],[".",".",".",".",".",".",".",".",".",".",".",".",7,".",".",7,9,11,"h",11,9,9,7,9,"h"],[".",".",".",".",".",".",".",".",".",".",".",".",".",".",".",".",".",".",".",".",".",".",".",".","."],[".",".",".",".",".",".",".",".",".",".",".",".",".",".",".",".",".",".",".",".",".",".",".",".","."],[".",".",".",".",".",".",".",".",".",".",".",".",".",".",".",".",".",".",".",".",".",".",".",".","."]],[[".",".",10,5,".",9,5,".",".",".","."],[".",10,".",".",5,".",".",".",".",10,12],[11,".",".",".",".",".",".",11,11,".","."],[".",".",".",".",".",".",".",".",".",".","."],[".",".",".",".",".",".",".",".",".",".","."],[".",".",".",".",".",".",".",".",".",".","."]]],"numberofstrings":6,"notes":["E","B","G","D","A","E","B"],"capo":0,"stringnotes":["E4","B3","G3","D3","A2","E2"],"comments":["Stave 1:","Stave 2:"],"timing":[["W","W","W","W","W","W","W","W","W","W","W","W","W","W","W","W","W","W","W","W","W","W","W","W"],["W","W","W","W","W","W","W","W","W","W","W"]],"timingvisible":false,"tabcounter":11,"stave":1,"totalstaves":2,"instrument":"6guitar","selectedtuning":"6_standard","version":"13"}

Member for

1 month 2 weeks
Submitted by QXilar on Wed, 2020-12-02 18:15