Sound will begin in 5 seconds

Walking The Dog Exercise

01234567891011121314151617181920212223
E
B
G
D
A
E
B
0 1 2 3 4 5 6 7 8 9 10 11 12 13 14 15 16 17 18 19 20 21 22 23
Song Science #1: How Pros Use 6 Chords to Write Hit Songs
(/) Slide Up  (\) Slide Down  (h) Hammer On  (p) Pull Off  (b) Bend (r) Release (v) Vibrato

Stave 1:

E|--1--2--3--4--------------------------------------------------------------
B|--------------2--3--4--5--------------------------------------------------
G|--------------------------3--4--5--6--------------------------------------
D|--------------------------------------4--5--6--7--------------------------
A|--------------------------------------------------5--6--7--8--------------
E|--------------------------------------------------------------6--7--8--9--

Stave 2:

E|------------------------------------------------------------11--12--13--14--
B|--------------------------------------------10--11--12--13------------------
G|-----------------------------9--10--11--12----------------------------------
D|---------------8--9--10--11-------------------------------------------------
A|--7--8--9--10---------------------------------------------------------------
E|----------------------------------------------------------------------------

Stave 3:

E|----------------------------------------------------------------------------------
B|--15--16--17--18------------------------------------------------------------------
G|------------------16--17--18--19--------------------------------------------------
D|----------------------------------17--18--19--20----------------------------------
A|--------------------------------------------------18--19--20--21------------------
E|------------------------------------------------------------------19--20--21--22--

http://www.guitartabcreator.com
Guitar Tab Creator is intended to store guitar tab created through the tool. It currently does not support in-line text editing. Any text you place in here will be lost. If you need to comment on your tab, please use the "Tab Notes" section located below.