Sound will begin in 5 seconds

Man In the Box alternate Solo

01234567891011121314151617181920212223
E
B
G
D
A
E
B
0 1 2 3 4 5 6 7 8 9 10 11 12 13 14 15 16 17 18 19 20 21 22 23
Song Science #1: How Pros Use 6 Chords to Write Hit Songs
(/) Slide Up  (\) Slide Down  (h) Hammer On  (p) Pull Off  (b) Bend (r) Release (v) Vibrato

Stave 1:

E|----------------------------------------------
B|--------------------12-9----------------------
G|----9-11-11----9-11------11-9-----------------
D|-11---------11----------------11-10-9----9----
A|--------------------------------------10------
E|-------------------------------------------12-

Stave 2:

E|------------------------------------------------------12-11-9-9-
B|----------------------------------12-9-11-9-12-9-11-9-----------
G|-----------------------------9-11-------------------------------
D|------------------------9-11------------------------------------
A|----------------9-11-12-----------------------------------------
E|-9-12-9-9-11-12-------------------------------------------------

Stave 3:

E|-9-9-9-9-12-12-12-12-11-11-11-11-14-14-14-14-13-13-16-16-15-15-17-17-18-18-
B|---------------------------------------------------------------------------
G|---------------------------------------------------------------------------
D|---------------------------------------------------------------------------
A|---------------------------------------------------------------------------
E|---------------------------------------------------------------------------

Stave 4:

E|-12-9-11-9-12-9-11-9-----------------------------------------
B|---------------------12-9-11-9-12-9-11-9---------------------
G|-----------------------------------------11-9----9-11-9----9-
D|----------------------------------------------11--------11---
A|-------------------------------------------------------------
E|-------------------------------------------------------------

Stave 5:

E|-------------
B|-------------
G|-------------
D|-------------
A|-2-2-2-----5-
E|-------5-7---

http://www.guitartabcreator.com
Guitar Tab Creator is intended to store guitar tab created through the tool. It currently does not support in-line text editing. Any text you place in here will be lost. If you need to comment on your tab, please use the "Tab Notes" section located below.