Sound will begin in 5 seconds

blood goate

Chords
01234567891011121314151617181920212223
E
B
G
D
A
E
B
0 1 2 3 4 5 6 7 8 9 10 11 12 13 14 15 16 17 18 19 20 21 22 23
(/) Slide Up  (\) Slide Down  (h) Hammer On  (p) Pull Off  (b) Bend (r) Release (v) Vibrato

Stave 1:

E|-----------------------|----------------------------------
B|-----------------------|----------------------------------
G|-----------------------|----------------------------------
D|--------------0-----0--|--5--4--7--8--7-------------------
A|--3--2--5--6-----6-----|--3--2--5--6--5--3-------5--4--3--
E|-----------------------|--3--2--5--6--5-----2/4--4--3--2--

Stave 2:

E|--------------------------------------
B|--------------------------------------
G|--------------------------------------
D|--5-----4--4--4-----5-----8--7--4-----
A|--3-----2--2--2-----3-----6--5--2-----
E|--3-----2--2--2-----3-----6--5--2-----

Stave 3:

E|--------------------------
B|--------------------------
G|--------------------------
D|-----5--5--4-----8--7--4--
A|-----3--3--2-----6--5--2--
E|-----3--3--2-----6--5--2--

http://www.guitartabcreator.com
Guitar Tab Creator is intended to store guitar tab created through the tool. It currently does not support in-line text editing. Any text you place in here will be lost. If you need to comment on your tab, please use the "Tab Notes" section located below.