Will the Circle Be Unbroken melody

01234567891011121314151617181920212223
E
B
G
D
A
E
B
0 1 2 3 4 5 6 7 8 9 10 11 12 13 14 15 16 17 18 19 20 21 22 23
(/) Slide Up  (\) Slide Down  (h) Hammer On  (p) Pull Off  (b) Bend (r) Release (v) Vibrato



E|--------------------------------------------------------
B|-----------------0--------0-----0--0--------------------
G|--------0--0--------2--0--0-----------2--0-----0--------
D|--0--2--0--0--------------0-----------2--2--------2--0--
A|--------2--2--------------2-----------3--3-----------2--
E|--------3--3--------------3--------------------------3--



E|-----------------------------------------------------------
B|-----------------0--3--3--0-----------0-----------0--------
G|--------0--0-----------0--0-----0--2--0--0-----2-----2--0--
D|--0--2--0--0-----------0--0-----------0--0-----0--------0--
A|--------2--2-----------2--2-----------2--2--------------2--
E|--------3--3-----------3--3-----------3--3--------------3--

Stave 3:

E|--
B|--
G|--
D|--
A|--
E|--

							http://www.guitartabcreator.com
Chords

Instruments
{"strings":[[[".",".",".",".","_",".",".",".",".","_",".",".",".",".","_",".",".","."],[".",".",".",".","_",0,".",".",0,"_",0,0,".",".","_",".",".","."],[".",".",0,0,"_",".",2,0,0,"_",".",".",2,0,"_",0,".","."],[0,2,0,0,"_",".",".",".",0,"_",".",".",2,2,"_",".",2,0],[".",".",2,2,"_",".",".",".",2,"_",".",".",3,3,"_",".",".",2],[".",".",3,3,"_",".",".",".",3,"_",".",".",".",".","_",".",".",3]],[[".",".",".",".","_",".",".",".",".","_",".",".",".",".","_",".",".",".","."],[".",".",".",".","_",0,3,3,0,"_",".",".",0,".","_",".",0,".","."],[".",".",0,0,"_",".",".",0,0,"_",0,2,0,0,"_",2,".",2,0],[0,2,0,0,"_",".",".",0,0,"_",".",".",0,0,"_",0,".",".",0],[".",".",2,2,"_",".",".",2,2,"_",".",".",2,2,"_",".",".",".",2],[".",".",3,3,"_",".",".",3,3,"_",".",".",3,3,"_",".",".",".",3]],[[],[],[],[],[],[]]],"numberofstrings":6,"notes":["E","B","G","D","A","E","B"],"capo":0,"stringnotes":["E4","B3","G3","D3","A2","E2"],"comments":["","","Stave 3:"],"timing":[["W","W","W","W",null,"W","W","W","W","W","W","W","W","W","W","W","W","W"],["W","W","W","W","W","W","W","W","W",null,"W","W","W","W",null,"W","W","W","W"],[]],"timingvisible":false,"tabcounter":0,"stave":2,"totalstaves":3,"instrument":"6guitar","selectedtuning":"6_standard","version":"13"}

Member for

8 months 2 weeks
Submitted by quarkansas on Sun, 2020-11-15 12:10