Sweet Home Alabama

Chords

01234567891011121314151617181920212223
E
B
G
D
A
E
B
0 1 2 3 4 5 6 7 8 9 10 11 12 13 14 15 16 17 18 19 20 21 22 23
(/) Slide Up  (\) Slide Down  (h) Hammer On  (p) Pull Off  (b) Bend (r) Release (v) Vibrato

Intro picking part (2x): [D - C - G] --> RIFF A (then back to intro picking part)

E|--------------------------------3--|----------------------|--
B|--------3-----------3-----------0--|----------------------|--
G|-----------2-----------2--------0--|-----------------2p0--|--
D|--0--0--------------------------0--|-------0h2p0----------|--
A|--------------3--3-----------------|--0h2---------2-------|--
E|--------------------------3--3-----|----------------------|--

RIFF B (after intro riff 2nd x)

E|----------------------------|--|--
B|----------------------------|--|--
G|--0--0--2--0--0--4--0--0--5b|--|--
D|----------------------------|--|--
A|----------------------------|--|--
E|----------------------------|--|--

Main rhythm part (into RIFF A) then  --> RIFF C (after main rhythm part 2nd x)

E|--------2-----------3-----------3--|-------------|--
B|--------3-----------3-----------3--|-------------|--
G|--------2-----------0-----------0--|----------0--|--
D|--0--0--0--------------------------|-------0-----|--
A|--------------3--3-----------------|--0h2--------|--
E|--------------------------3--3-----|-------------|--

guitar interlude riff:

E|------------------------------------------------------------------|--
B|------------------------------------------------------------------|--
G|-----------7--7------------5--5---------------0--0----------------|--
D|-----------7--7------------5--5------------0-------------------0--|--
A|--7--8--9--------9p7--5h7--------7p5--0h2-----------------0h2-----|--
E|----------------------------------------------------3-------------|--

							http://www.guitartabcreator.com
Instruments
{"strings":[[[".",".",".",".",".",".",".",".",".",".",3,"|",".",".",".",".",".",".",".",".",".",".",".",".","|"],[".",".",3,".",".",".",3,".",".",".",0,"|",".",".",".",".",".",".",".",".",".",".",".",".","|"],[".",".",".",2,".",".",".",2,".",".",0,"|",".",".",".",".",".",".",".",".",".",2,"p",0,"|"],[0,0,".",".",".",".",".",".",".",".",0,"|",".",".",".",0,"h",2,"p",0,".",".",".",".","|"],[".",".",".",".",3,3,".",".",".",".",".","|",0,"h",2,".",".",".",".",".",2,".",".",".","|"],[".",".",".",".",".",".",".",".",3,3,".","|",".",".",".",".",".",".",".",".",".",".",".",".","|"]],[[".",".",".",".",".",".",".",".",".",".","|","|"],[".",".",".",".",".",".",".",".",".",".","|","|"],[0,0,2,0,0,4,0,0,5,"b","|","|"],[".",".",".",".",".",".",".",".",".",".","|","|"],[".",".",".",".",".",".",".",".",".",".","|","|"],[".",".",".",".",".",".",".",".",".",".","|","|"]],[[".",".",2,"_",".",".",3,"_",".",".",3,"|",".",".",".",".",".","|"],[".",".",3,"_",".",".",3,"_",".",".",3,"|",".",".",".",".",".","|"],[".",".",2,"_",".",".",0,"_",".",".",0,"|",".",".",".",".",0,"|"],[0,0,0,"_",".",".",".","_",".",".",".","|",".",".",".",0,".","|"],[".",".",".","_",3,3,".","_",".",".",".","|",0,"h",2,".",".","|"],[".",".",".","_",".",".",".","_",3,3,".","|",".",".",".",".",".","|"]],[[".",".",".",".",".",".",".",".",".",".",".",".",".",".",".",".",".",".",".",".",".",".",".","_",".",".",".",".","|"],[".",".",".",".",".",".",".",".",".",".",".",".",".",".",".",".",".",".",".",".",".",".",".","_",".",".",".",".","|"],[".",".",".",7,7,".",".",".",".",".",".",5,5,".",".",".",".",".",".",".",0,0,".","_",".",".",".",".","|"],[".",".",".",7,7,".",".",".",".",".",".",5,5,".",".",".",".",".",".",0,".",".",".","_",".",".",".",0,"|"],[7,8,9,".",".",9,"p",7,5,"h",7,".",".",7,"p",5,0,"h",2,".",".",".",".","_",0,"h",2,".","|"],[".",".",".",".",".",".",".",".",".",".",".",".",".",".",".",".",".",".",".",".",".",".",3,"_",".",".",".",".","|"]]],"numberofstrings":6,"notes":["E","B","G","D","A","E","B"],"capo":0,"stringnotes":["E4","B3","G3","D3","A2","E2"],"comments":["Intro picking part (2x): [D - C - G] --> RIFF A (then back to intro picking part)","RIFF B (after intro riff 2nd x)","Main rhythm part (into RIFF A) then --> RIFF C (after main rhythm part 2nd x)","guitar interlude riff:"],"timing":[["W","W","W","W","W","W","W","W","W","W","W","W","W","W","W","W","W","W","W","W","W","W",null,"W"],["W","W","W","W","W","W","W","W","W","W",null,null,"W","W","W","W","W"],["W","W","W",null,"W","W","W","W","W","W","W",null,"W",null,"W","W","W"],["W","W","W","W","W","W",null,"W","W",null,"W","W","W","W",null,"W","W","W","W","W","W","W","W",null,"W","W","W","W","W"]],"timingvisible":false,"tabcounter":29,"stave":3,"totalstaves":4,"instrument":"6guitar","selectedtuning":"6_standard","version":"13"}

Member for

2 months 1 week
Submitted by quarkansas on Sat, 2020-06-27 16:42