sweet dreams

Chords

01234567891011121314151617181920212223
E
B
G
D
A
E
B
0 1 2 3 4 5 6 7 8 9 10 11 12 13 14 15 16 17 18 19 20 21 22 23
(/) Slide Up  (\) Slide Down  (h) Hammer On  (p) Pull Off  (b) Bend (r) Release (v) Vibrato

Stave 1:

E|--------------------------------------------------|--
B|--------------4--4--------------------------------|--
G|--------5--5--------5--5-----------5-----------3--|--
D|--------------------------------6-----------5-----|--
A|--3--3--------------------------------------------|--
E|--------------------------4--4--------3--3--------|--

Stave 2:

E|-----------------------------------------------------------------------------------------------------|--
B|-----------------------------------------------------------------------------------------------------|--
G|-----------------------------------------------------------------------------------------------------|--
D|-----------------------------------------------------------------------------------------------------|--
A|--------------------------------------------------3--3--3--3--3--3--3--3--3--------------------------|--
E|--4--4--4--4--4--4--4--4--3--3--3--3--3--3--3--3-----------------------------1--1--1--1--1--1--1--1--|--

							http://www.guitartabcreator.com
Instruments
{"strings":[[[".",".",".",".",".",".",".",".",".",".",".",".",".",".",".",".","|"],[".",".",".",".",4,4,".",".",".",".",".",".",".",".",".",".","|"],[".",".",5,5,".",".",5,5,".",".",".",5,".",".",".",3,"|"],[".",".",".",".",".",".",".",".",".",".",6,".",".",".",5,".","|"],[3,3,".",".",".",".",".",".",".",".",".",".",".",".",".",".","|"],[".",".",".",".",".",".",".",".",4,4,".",".",3,3,".",".","|"]],[[".",".",".",".",".",".",".",".",".",".",".",".",".",".",".",".",".",".",".",".",".",".",".",".",".",".",".",".",".",".",".",".",".","|"],[".",".",".",".",".",".",".",".",".",".",".",".",".",".",".",".",".",".",".",".",".",".",".",".",".",".",".",".",".",".",".",".",".","|"],[".",".",".",".",".",".",".",".",".",".",".",".",".",".",".",".",".",".",".",".",".",".",".",".",".",".",".",".",".",".",".",".",".","|"],[".",".",".",".",".",".",".",".",".",".",".",".",".",".",".",".",".",".",".",".",".",".",".",".",".",".",".",".",".",".",".",".",".","|"],[".",".",".",".",".",".",".",".",".",".",".",".",".",".",".",".",3,3,3,3,3,3,3,3,3,".",".",".",".",".",".",".",".","|"],[4,4,4,4,4,4,4,4,3,3,3,3,3,3,3,3,".",".",".",".",".",".",".",".",".",1,1,1,1,1,1,1,1,"|"]]],"numberofstrings":6,"notes":["E","B","G","D","A","E","B"],"capo":0,"stringnotes":["E4","B3","G3","D3","A2","E2"],"comments":["Stave 1:","Stave 2:"],"timing":[["W","W","W","W","W","W","W","W","W","W","W","W","W","W","W","W"],["W","W","W","W","W","W","W","W","W","W","W","W","W","W","W","W","W","W","W","W","W","W","W","W","W","W","W","W","W","W","W","W","W"]],"timingvisible":false,"tabcounter":34,"stave":1,"totalstaves":2,"instrument":"6guitar","selectedtuning":"6_standard","version":"13"}

Member for

7 months
Submitted by quarkansas on Thu, 2020-11-19 19:12