Stranger Things

Chords

01234567891011121314151617181920212223
E
B
G
D
A
E
B
0 1 2 3 4 5 6 7 8 9 10 11 12 13 14 15 16 17 18 19 20 21 22 23
(/) Slide Up  (\) Slide Down  (h) Hammer On  (p) Pull Off  (b) Bend (r) Release (v) Vibrato

Cmaj7 shape

E|--------------------------------------------------|--
B|-----------0--1--0-----------------0--1--0--------|--
G|--------0-----------0-----------0-----------0-----|--
D|-----2-----------------2-----2-----------------2--|--
A|--3-----------------------3-----------------------|--
E|--------------------------------------------------|--

E minor shape

E|--------------------------------------------------|--
B|-----------0--1--0-----------------0--1--0--------|--
G|--------0-----------0-----------0-----------0-----|--
D|-----2-----------------2-----2-----------------2--|--
A|--------------------------------------------------|--
E|--0-----------------------0-----------------------|--

Cmaj7  -  Eminor

E|--0--------0--|--
B|--0--------0--|--
G|--0--------0--|--
D|--2--------2--|--
A|--3--------2--|--
E|--3--------0--|--

							http://www.guitartabcreator.com
Instruments
{"strings":[[[".",".",".",".",".",".",".",".",".",".",".",".",".",".",".",".","|"],[".",".",".",0,1,0,".",".",".",".",".",0,1,0,".",".","|"],[".",".",0,".",".",".",0,".",".",".",0,".",".",".",0,".","|"],[".",2,".",".",".",".",".",2,".",2,".",".",".",".",".",2,"|"],[3,".",".",".",".",".",".",".",3,".",".",".",".",".",".",".","|"],[".",".",".",".",".",".",".",".",".",".",".",".",".",".",".",".","|"]],[[".",".",".",".",".",".",".",".",".",".",".",".",".",".",".",".","|"],[".",".",".",0,1,0,".",".",".",".",".",0,1,0,".",".","|"],[".",".",0,".",".",".",0,".",".",".",0,".",".",".",0,".","|"],[".",2,".",".",".",".",".",2,".",2,".",".",".",".",".",2,"|"],[".",".",".",".",".",".",".",".",".",".",".",".",".",".",".",".","|"],[0,".",".",".",".",".",".",".",0,".",".",".",".",".",".",".","|"]],[[0,"_","_",0,"|"],[0,"_","_",0,"|"],[0,"_","_",0,"|"],[2,"_","_",2,"|"],[3,"_","_",2,"|"],[3,"_","_",0,"|"]]],"numberofstrings":6,"notes":["E","B","G","D","A","E","B"],"capo":0,"stringnotes":["E4","B3","G3","D3","A2","E2"],"comments":["Cmaj7 shape","E minor shape","Cmaj7 - Eminor"],"timing":[["W","W","W","W","W","W","W","W","W","W","W","W","W","W","W","W","W","W","W","W","W","W","W","W","W","W","W","W","W","W","W","W"],["W","W","W","W","W","W","W","W","W","W","W","W","W","W","W","W"],["W",null,null,"W"]],"timingvisible":false,"tabcounter":5,"stave":2,"totalstaves":3,"instrument":"6guitar","selectedtuning":"6_standard","version":"13"}

Member for

4 months 1 week
Submitted by quarkansas on Tue, 2020-09-15 13:48