Shake It Off (melody)

Chords

01234567891011121314151617181920212223
E
B
G
D
A
E
B
0 1 2 3 4 5 6 7 8 9 10 11 12 13 14 15 16 17 18 19 20 21 22 23
(/) Slide Up  (\) Slide Down  (h) Hammer On  (p) Pull Off  (b) Bend (r) Release (v) Vibrato

"I stay out too late..."

E|--10--7---------7--------10--7---------7-----10--7---------7------------------|--
B|---------10--8------------------10--8---------------10--8-----10--8-----------|--
G|----------------------7-------------------------------------------------9--7--|--
D|------------------------------------------------------------------------------|--
A|------------------------------------------------------------------------------|--
E|------------------------------------------------------------------------------|--

"That's what people say..."

E|--10--7---------7------------------|--
B|---------10--8-----10--8-----------|--
G|-----------------------------9--7--|--
D|-----------------------------------|--
A|-----------------------------------|--
E|-----------------------------------|--

"But I keep cruisin..."

E|--7-----------------------7--------------------7----------------|--
B|-----10--8--10--------10-----10--8--10-----10-----10--8--10--8--|--
G|----------------9-----------------------9-----------------------|--
D|----------------------------------------------------------------|--
A|----------------------------------------------------------------|--
E|----------------------------------------------------------------|--

"It's gonna be alright..."

E|------7-----------------------7-----|--
B|--10-----8-----8--10--10--10-----8--|--
G|------------9-----------------------|--
D|------------------------------------|--
A|------------------------------------|--
E|------------------------------------|--

"Cuz the players gonna play play play ..."

E|----------------7--7----------------------------7--7--------------------|--
B|--8--8--10--10--------8-----------------10--10--------8-----------------|--
G|-------------------------9--7----------------------------9--7-----------|--
D|-------------------------------9--7--5-------------------------9--7--5--|--
A|------------------------------------------------------------------------|--
E|------------------------------------------------------------------------|--

"Baby I'm just gonna shake shake shake, I shake it off I shake it off..."

E|----------------7--7----------------------------------7------------7-----|--
B|-----8--10--10--------10--8--------------------8--10-----8--8--10-----8--|--
G|--9--------------------------9--7----------------------------------------|--
D|-----------------------------------9--7--5-------------------------------|--
A|-------------------------------------------------------------------------|--
E|-------------------------------------------------------------------------|--

							http://www.guitartabcreator.com
Instruments
{"strings":[[[10,7,".",".",7,"_",".",10,7,".",".",7,"_",10,7,".",".",7,".",".","_",".",".","|"],[".",".",10,8,".","_",".",".",".",10,8,".","_",".",".",10,8,".",10,8,"_",".",".","|"],[".",".",".",".",".","_",7,".",".",".",".",".","_",".",".",".",".",".",".",".","_",9,7,"|"],[".",".",".",".",".","_",".",".",".",".",".",".","_",".",".",".",".",".",".",".","_",".",".","|"],[".",".",".",".",".","_",".",".",".",".",".",".","_",".",".",".",".",".",".",".","_",".",".","|"],[".",".",".",".",".","_",".",".",".",".",".",".","_",".",".",".",".",".",".",".","_",".",".","|"]],[[10,7,".",".",7,".",".","_",".",".","|"],[".",".",10,8,".",10,8,"_",".",".","|"],[".",".",".",".",".",".",".","_",9,7,"|"],[".",".",".",".",".",".",".","_",".",".","|"],[".",".",".",".",".",".",".","_",".",".","|"],[".",".",".",".",".",".",".","_",".",".","|"]],[[7,".",".",".",".","_",".",7,".",".",".",".",".",7,".",".",".",".","|"],[".",10,8,10,".","_",10,".",10,8,10,".",10,".",10,8,10,8,"|"],[".",".",".",".",9,"_",".",".",".",".",".",9,".",".",".",".",".",".","|"],[".",".",".",".",".","_",".",".",".",".",".",".",".",".",".",".",".",".","|"],[".",".",".",".",".","_",".",".",".",".",".",".",".",".",".",".",".",".","|"],[".",".",".",".",".","_",".",".",".",".",".",".",".",".",".",".",".",".","|"]],[[".",7,".",".",".",".",".",".",7,".","|"],[10,".",8,".",8,10,10,10,".",8,"|"],[".",".",".",9,".",".",".",".",".",".","|"],[".",".",".",".",".",".",".",".",".",".","|"],[".",".",".",".",".",".",".",".",".",".","|"],[".",".",".",".",".",".",".",".",".",".","|"]],[[".",".",".",".",7,7,".",".",".",".",".",".",".",".",7,7,".",".",".",".",".",".","|"],[8,8,10,10,".",".",8,".",".",".",".",".",10,10,".",".",8,".",".",".",".",".","|"],[".",".",".",".",".",".",".",9,7,".",".",".",".",".",".",".",".",9,7,".",".",".","|"],[".",".",".",".",".",".",".",".",".",9,7,5,".",".",".",".",".",".",".",9,7,5,"|"],[".",".",".",".",".",".",".",".",".",".",".",".",".",".",".",".",".",".",".",".",".",".","|"],[".",".",".",".",".",".",".",".",".",".",".",".",".",".",".",".",".",".",".",".",".",".","|"]],[[".",".",".",".",7,7,".",".",".",".",".",".",".","_",".",".",7,".",".",".",7,".","|"],[".",8,10,10,".",".",10,8,".",".",".",".",".","_",8,10,".",8,8,10,".",8,"|"],[9,".",".",".",".",".",".",".",9,7,".",".",".","_",".",".",".",".",".",".",".",".","|"],[".",".",".",".",".",".",".",".",".",".",9,7,5,"_",".",".",".",".",".",".",".",".","|"],[".",".",".",".",".",".",".",".",".",".",".",".",".","_",".",".",".",".",".",".",".",".","|"],[".",".",".",".",".",".",".",".",".",".",".",".",".","_",".",".",".",".",".",".",".",".","|"]]],"numberofstrings":6,"notes":["E","B","G","D","A","E","B"],"capo":0,"stringnotes":["E4","B3","G3","D3","A2","E2"],"comments":["\"I stay out too late...\"","\"That's what people say...\"","\"But I keep cruisin...\"","\"It's gonna be alright...\"","\"Cuz the players gonna play play play ...\"","\"Baby I'm just gonna shake shake shake, I shake it off I shake it off...\""],"timing":[["W","W","W","W","W",null,"W","W","W","W","W","W",null,"W","W","W","W","W","W","W","W","W","W"],["W","W","W","W","W","W","W","W","W","W"],["W","W","W","W","W",null,"W","W","W","W","W","W","W","W","W","W","W","W"],["W","W","W","W","W","W","W","W","W","W"],["W","W","W","W","W","W","W","W","W","W","W","W","W","W","W","W","W","W","W","W","W","W"],["W","W","W","W","W","W","W","W","W","W","W","W","W",null,"W","W","W","W","W","W","W","W"]],"timingvisible":false,"tabcounter":23,"stave":5,"totalstaves":6,"instrument":"6guitar","selectedtuning":"6_standard","version":"13"}

Member for

7 months
Submitted by quarkansas on Fri, 2020-11-20 12:22