safe and sound melody 2

Chords

01234567891011121314151617181920212223
E
B
G
D
A
E
B
0 1 2 3 4 5 6 7 8 9 10 11 12 13 14 15 16 17 18 19 20 21 22 23
(/) Slide Up  (\) Slide Down  (h) Hammer On  (p) Pull Off  (b) Bend (r) Release (v) Vibrato

Stave 1:

E|--7--7--7--7--5-----5--5--3--3--2-----------------------------|--
B|-----------------------------------3--3--5--5--5--5--5--3--0--|--
G|--------------------------------------------------------------|--
D|--------------------------------------------------------------|--
A|--------------------------------------------------------------|--
E|--------------------------------------------------------------|--

Stave 2:

E|--7--7--5--5--3--3--2-----0--2--|--7--7--5--5--8--7--------------------|--
B|-----------------------3--------|--------------------3--5--5--5--3--0--|--
G|--------------------------------|--------------------------------------|--
D|--------------------------------|--------------------------------------|--
A|--------------------------------|--------------------------------------|--
E|--------------------------------|--------------------------------------|--

Stave 3:

E|--7--7--5--5--3--3--2-----0--3--5--7--0--|--
B|-----------------------3-----------------|--
G|-----------------------------------------|--
D|-----------------------------------------|--
A|-----------------------------------------|--
E|-----------------------------------------|--

Stave 4:

E|--3--5--7--10-----7--5--7--5--3--0--|--3--5--7--10-----7--5--7--5--3--0--|--
B|------------------------------------|------------------------------------|--
G|------------------------------------|------------------------------------|--
D|------------------------------------|------------------------------------|--
A|------------------------------------|------------------------------------|--
E|------------------------------------|------------------------------------|--

Stave 5:

E|--3--5--7--10-----5--7--5--3--0-----2-----0--3--5--7--0--|--
B|---------------------------------------------------------|--
G|---------------------------------------------------------|--
D|---------------------------------------------------------|--
A|---------------------------------------------------------|--
E|---------------------------------------------------------|--

Stave 6:

E|--7--5--8--7--------------------7--5--3--2--0--3--5--7--0--|--
B|--------------5--5--5--3--0--------------------------------|--
G|-----------------------------------------------------------|--
D|-----------------------------------------------------------|--
A|-----------------------------------------------------------|--
E|-----------------------------------------------------------|--

Stave 7:

E|--0--3--5--7--0-----0--3--5--7--0-----8--7-----8--7--5--3--|--
B|-----------------------------------------------------------|--
G|-----------------------------------------------------------|--
D|-----------------------------------------------------------|--
A|-----------------------------------------------------------|--
E|-----------------------------------------------------------|--

							http://www.guitartabcreator.com
Instruments
{"strings":[[[7,7,7,7,5,"_",5,5,3,3,2,".",".",".",".",".",".",".",".",".","|"],[".",".",".",".",".","_",".",".",".",".",".",3,3,5,5,5,5,5,3,0,"|"],[".",".",".",".",".","_",".",".",".",".",".",".",".",".",".",".",".",".",".",".","|"],[".",".",".",".",".","_",".",".",".",".",".",".",".",".",".",".",".",".",".",".","|"],[".",".",".",".",".","_",".",".",".",".",".",".",".",".",".",".",".",".",".",".","|"],[".",".",".",".",".","_",".",".",".",".",".",".",".",".",".",".",".",".",".",".","|"]],[[7,7,5,5,3,3,2,".",0,2,"|",7,7,5,5,8,7,".",".",".",".",".",".","|"],[".",".",".",".",".",".",".",3,".",".","|",".",".",".",".",".",".",3,5,5,5,3,0,"|"],[".",".",".",".",".",".",".",".",".",".","|",".",".",".",".",".",".",".",".",".",".",".",".","|"],[".",".",".",".",".",".",".",".",".",".","|",".",".",".",".",".",".",".",".",".",".",".",".","|"],[".",".",".",".",".",".",".",".",".",".","|",".",".",".",".",".",".",".",".",".",".",".",".","|"],[".",".",".",".",".",".",".",".",".",".","|",".",".",".",".",".",".",".",".",".",".",".",".","|"]],[[7,7,5,5,3,3,2,".",0,3,5,7,0,"|"],[".",".",".",".",".",".",".",3,".",".",".",".",".","|"],[".",".",".",".",".",".",".",".",".",".",".",".",".","|"],[".",".",".",".",".",".",".",".",".",".",".",".",".","|"],[".",".",".",".",".",".",".",".",".",".",".",".",".","|"],[".",".",".",".",".",".",".",".",".",".",".",".",".","|"]],[[3,5,7,10,"_",7,5,7,5,3,0,"|",3,5,7,10,"_",7,5,7,5,3,0,"|"],[".",".",".",".","_",".",".",".",".",".",".","|",".",".",".",".","_",".",".",".",".",".",".","|"],[".",".",".",".","_",".",".",".",".",".",".","|",".",".",".",".","_",".",".",".",".",".",".","|"],[".",".",".",".","_",".",".",".",".",".",".","|",".",".",".",".","_",".",".",".",".",".",".","|"],[".",".",".",".","_",".",".",".",".",".",".","|",".",".",".",".","_",".",".",".",".",".",".","|"],[".",".",".",".","_",".",".",".",".",".",".","|",".",".",".",".","_",".",".",".",".",".",".","|"]],[[3,5,7,10,"_",5,7,5,3,0,"_",2,"_",0,3,5,7,0,"|"],[".",".",".",".","_",".",".",".",".",".","_",".","_",".",".",".",".",".","|"],[".",".",".",".","_",".",".",".",".",".","_",".","_",".",".",".",".",".","|"],[".",".",".",".","_",".",".",".",".",".","_",".","_",".",".",".",".",".","|"],[".",".",".",".","_",".",".",".",".",".","_",".","_",".",".",".",".",".","|"],[".",".",".",".","_",".",".",".",".",".","_",".","_",".",".",".",".",".","|"]],[[7,5,8,7,".",".",".",".",".","_",7,5,3,2,0,3,5,7,0,"|"],[".",".",".",".",5,5,5,3,0,"_",".",".",".",".",".",".",".",".",".","|"],[".",".",".",".",".",".",".",".",".","_",".",".",".",".",".",".",".",".",".","|"],[".",".",".",".",".",".",".",".",".","_",".",".",".",".",".",".",".",".",".","|"],[".",".",".",".",".",".",".",".",".","_",".",".",".",".",".",".",".",".",".","|"],[".",".",".",".",".",".",".",".",".","_",".",".",".",".",".",".",".",".",".","|"]],[[0,3,5,7,0,"_",0,3,5,7,0,"_",8,7,"_",8,7,5,3,"|"],[".",".",".",".",".","_",".",".",".",".",".","_",".",".","_",".",".",".",".","|"],[".",".",".",".",".","_",".",".",".",".",".","_",".",".","_",".",".",".",".","|"],[".",".",".",".",".","_",".",".",".",".",".","_",".",".","_",".",".",".",".","|"],[".",".",".",".",".","_",".",".",".",".",".","_",".",".","_",".",".",".",".","|"],[".",".",".",".",".","_",".",".",".",".",".","_",".",".","_",".",".",".",".","|"]]],"numberofstrings":6,"notes":["E","B","G","D","A","E","B"],"capo":0,"stringnotes":["E4","B3","G3","D3","A2","E2"],"comments":["Stave 1:","Stave 2:","Stave 3:","Stave 4:","Stave 5:","Stave 6:","Stave 7:"],"timing":[["W","W","W","W","W",null,"W","W","W","W","W","W","W","W","W","W","W","W","W","W"],["W","W","W","W","W","W","W","W","W","W",null,"W","W","W","W","W","W","W","W","W","W","W","W"],["W","W","W","W","W","W","W","W","W","W","W","W","W"],["W","W","W","W",null,"W","W","W","W","W","W",null,"W","W","W","W","W","W","W","W","W","W","W"],["W","W","W","W",null,"W","W","W","W","W","W","W",null,"W","W","W","W","W"],["W","W","W","W","W","W","W","W","W",null,"W","W","W","W","W","W","W","W","W"],["W","W","W","W","W",null,"W","W","W","W","W",null,"W","W",null,"W","W","W","W"]],"timingvisible":false,"tabcounter":20,"stave":6,"totalstaves":7,"instrument":"6guitar","selectedtuning":"6_standard","version":"13"}

Member for

8 months 2 weeks
Submitted by quarkansas on Fri, 2020-11-13 15:19