Safe and Sound melody

01234567891011121314151617181920212223
E
B
G
D
A
E
B
0 1 2 3 4 5 6 7 8 9 10 11 12 13 14 15 16 17 18 19 20 21 22 23
(/) Slide Up  (\) Slide Down  (h) Hammer On  (p) Pull Off  (b) Bend (r) Release (v) Vibrato

Stave 1:

E|--0--0--0--0-----------------------------------0--0-----------------------|--
B|--------------3--3--1--1--0--------------------------3--3--1--1--0-----1--|--
G|-----------------------------2--2--2--0-----------------------------2-----|--
D|-----------------------------------------2--------------------------------|--
A|--------------------------------------------------------------------------|--
E|--------------------------------------------------------------------------|--

Stave 2:

E|--0-----1--0--------------------0--0--------------------------0-----|--
B|-----3--------------------------------3--3--1--1--0-----1--3--------|--
G|--------------2--2--2--0-----------------------------2-----------2--|--
D|--------------------------2-----------------------------------------|--
A|--------------------------------------------------------------------|--
E|--------------------------------------------------------------------|--

Stave 3:

E|-----------3--------0-----------------------3-----0-----------|--
B|-----1--3--------3-----3--1-----------1--3-----3-----3--1-----|--
G|--2--------------------------2-----2-----------------------2--|--
D|--------------------------------------------------------------|--
A|--------------------------------------------------------------|--
E|--------------------------------------------------------------|--

Stave 4:

E|-----------3--------0-----------------------0-----|--
B|-----1--3--------3-----3--1-----0--0--1--3--------|--
G|--2--------------------------2-----------------2--|--
D|--------------------------------------------------|--
A|--------------------------------------------------|--
E|--------------------------------------------------|--

							http://www.guitartabcreator.com
Chords

Instruments
{"strings":[[[0,0,0,0,".",".",".",".",".",".",".",".",".",".","_",0,0,".",".",".",".",".",".",".","|"],[".",".",".",".",3,3,1,1,0,".",".",".",".",".","_",".",".",3,3,1,1,0,".",1,"|"],[".",".",".",".",".",".",".",".",".",2,2,2,0,".","_",".",".",".",".",".",".",".",2,".","|"],[".",".",".",".",".",".",".",".",".",".",".",".",".",2,"_",".",".",".",".",".",".",".",".",".","|"],[".",".",".",".",".",".",".",".",".",".",".",".",".",".","_",".",".",".",".",".",".",".",".",".","|"],[".",".",".",".",".",".",".",".",".",".",".",".",".",".","_",".",".",".",".",".",".",".",".",".","|"]],[[0,".",1,0,".",".",".",".",".","_",0,0,".",".",".",".",".",".",".",".",0,".","|"],[".",3,".",".",".",".",".",".",".","_",".",".",3,3,1,1,0,".",1,3,".",".","|"],[".",".",".",".",2,2,2,0,".","_",".",".",".",".",".",".",".",2,".",".",".",2,"|"],[".",".",".",".",".",".",".",".",2,"_",".",".",".",".",".",".",".",".",".",".",".",".","|"],[".",".",".",".",".",".",".",".",".","_",".",".",".",".",".",".",".",".",".",".",".",".","|"],[".",".",".",".",".",".",".",".",".","_",".",".",".",".",".",".",".",".",".",".",".",".","|"]],[[".",".",".",3,"_",".",0,".",".",".","_",".",".",".",3,".",0,".",".",".","|"],[".",1,3,".","_",3,".",3,1,".","_",".",1,3,".",3,".",3,1,".","|"],[2,".",".",".","_",".",".",".",".",2,"_",2,".",".",".",".",".",".",".",2,"|"],[".",".",".",".","_",".",".",".",".",".","_",".",".",".",".",".",".",".",".",".","|"],[".",".",".",".","_",".",".",".",".",".","_",".",".",".",".",".",".",".",".",".","|"],[".",".",".",".","_",".",".",".",".",".","_",".",".",".",".",".",".",".",".",".","|"]],[[".",".",".",3,"_",".",0,".",".",".",".",".",".",".",0,".","|"],[".",1,3,".","_",3,".",3,1,".",0,0,1,3,".",".","|"],[2,".",".",".","_",".",".",".",".",2,".",".",".",".",".",2,"|"],[".",".",".",".","_",".",".",".",".",".",".",".",".",".",".",".","|"],[".",".",".",".","_",".",".",".",".",".",".",".",".",".",".",".","|"],[".",".",".",".","_",".",".",".",".",".",".",".",".",".",".",".","|"]]],"numberofstrings":6,"notes":["E","B","G","D","A","E","B"],"capo":0,"stringnotes":["E4","B3","G3","D3","A2","E2"],"comments":["Stave 1:","Stave 2:","Stave 3:","Stave 4:"],"timing":[["W","W","W","W","W","W","W","W","W","W","W","W","W","W",null,"W","W","W","W","W","W","W","W","W"],["W","W","W","W","W","W","W","W","W",null,"W","W","W","W","W","W","W","W","W","W","W","W"],["W","W","W","W",null,"W","W","W","W","W","W","W","W","W","W","W","W","W","W","W","W","W","W"],["W","W","W","W",null,"W","W","W","W","W","W","W","W","W","W","W"]],"timingvisible":false,"tabcounter":17,"stave":3,"totalstaves":4,"instrument":"6guitar","selectedtuning":"6_standard","version":"13"}

Member for

8 months 2 weeks
Submitted by quarkansas on Fri, 2020-11-06 17:25