Right Hand Man excerpts

Chords

01234567891011121314151617181920212223
E
B
G
D
A
E
B
0 1 2 3 4 5 6 7 8 9 10 11 12 13 14 15 16 17 18 19 20 21 22 23
(/) Slide Up  (\) Slide Down  (h) Hammer On  (p) Pull Off  (b) Bend (r) Release (v) Vibrato

"British admiral howe's got troops on the water..."

E|-----10--8--6--8--------------3--------------------
B|--8------------------1--1--1-----1--1--1--3--1-----
G|---------------------------------------------------
D|---------------------------------------------------
A|---------------------------------------------------
E|---------------------------------------------------

"32 thousand troops in New York harbor..."

E|-----------3--------------------------------------------------------------
B|--1--1--1-----1--1-----1--1--1--3--1-----1--1--1--1--1--1--1--1--1--3--1--
G|--------------------------------------------------------------------------
D|--------------------------------------------------------------------------
A|--------------------------------------------------------------------------
E|--------------------------------------------------------------------------

Play this line 2x:

E|--------------------------------------
B|--1--1--1--1--1--1--1--1--1--1--3--1--
G|--------------------------------------
D|--------------------------------------
A|--------------------------------------
E|--------------------------------------

"As a kid in the Caribbean..." 

E|--------------------------------------------
B|--------------------------------------------
G|--0--0--0--0--0--0--0--0--0--0--0--0--0--0--
D|--------------------------------------------
A|--------------------------------------------
E|--------------------------------------------

part 2 chords:

E|--------------------------------------------------
B|--------------------------------------------------
G|--5--5--5--5--5--5--5--5--5--5--5--5--5--5--5--5--
D|--5--5--5--5--6--6--6--6--7--7--7--7--6--6--6--6--
A|--------------------------------------------------
E|--------------------------------------------------

part 3 melody:

E|---------8------------8-------------8-------------8------
B|------8-----8------9-----9------10-----10------9---------
G|---------------------------------------------------------
D|--10-----------10-----------10-------------10--------10--
A|---------------------------------------------------------
E|---------------------------------------------------------

							http://www.guitartabcreator.com
Instruments
{"strings":[[[".",10,8,6,8,"_",".",".",".",3,".",".",".",".",".","_"],[8,".",".",".",".","_",1,1,1,".",1,1,1,3,1,"_"],[".",".",".",".",".","_",".",".",".",".",".",".",".",".",".","_"],[".",".",".",".",".","_",".",".",".",".",".",".",".",".",".","_"],[".",".",".",".",".","_",".",".",".",".",".",".",".",".",".","_"],[".",".",".",".",".","_",".",".",".",".",".",".",".",".",".","_"]],[[".",".",".",3,".",".","_",".",".",".",".",".","_",".",".",".",".",".",".",".",".",".",".","."],[1,1,1,".",1,1,"_",1,1,1,3,1,"_",1,1,1,1,1,1,1,1,1,3,1],[".",".",".",".",".",".","_",".",".",".",".",".","_",".",".",".",".",".",".",".",".",".",".","."],[".",".",".",".",".",".","_",".",".",".",".",".","_",".",".",".",".",".",".",".",".",".",".","."],[".",".",".",".",".",".","_",".",".",".",".",".","_",".",".",".",".",".",".",".",".",".",".","."],[".",".",".",".",".",".","_",".",".",".",".",".","_",".",".",".",".",".",".",".",".",".",".","."]],[[".",".",".",".",".",".",".",".",".",".",".","."],[1,1,1,1,1,1,1,1,1,1,3,1],[".",".",".",".",".",".",".",".",".",".",".","."],[".",".",".",".",".",".",".",".",".",".",".","."],[".",".",".",".",".",".",".",".",".",".",".","."],[".",".",".",".",".",".",".",".",".",".",".","."]],[[".",".",".",".",".",".",".",".",".",".",".",".",".","."],[".",".",".",".",".",".",".",".",".",".",".",".",".","."],[0,0,0,0,0,0,0,0,0,0,0,0,0,0],[".",".",".",".",".",".",".",".",".",".",".",".",".","."],[".",".",".",".",".",".",".",".",".",".",".",".",".","."],[".",".",".",".",".",".",".",".",".",".",".",".",".","."]],[[".",".",".",".",".",".",".",".",".",".",".",".",".",".",".","."],[".",".",".",".",".",".",".",".",".",".",".",".",".",".",".","."],[5,5,5,5,5,5,5,5,5,5,5,5,5,5,5,5],[5,5,5,5,6,6,6,6,7,7,7,7,6,6,6,6],[".",".",".",".",".",".",".",".",".",".",".",".",".",".",".","."],[".",".",".",".",".",".",".",".",".",".",".",".",".",".",".","."]],[[".",".",8,".",".",".",8,".",".",".",8,".",".",".",8,"."],[".",8,".",8,".",9,".",9,".",10,".",10,".",9,".","."],[".",".",".",".",".",".",".",".",".",".",".",".",".",".",".","."],[10,".",".",".",10,".",".",".",10,".",".",".",10,".",".",10],[".",".",".",".",".",".",".",".",".",".",".",".",".",".",".","."],[".",".",".",".",".",".",".",".",".",".",".",".",".",".",".","."]]],"numberofstrings":6,"notes":["E","B","G","D","A","E","B"],"capo":0,"stringnotes":["E4","B3","G3","D3","A2","E2"],"comments":["\"British admiral howe's got troops on the water...\"","\"32 thousand troops in New York harbor...\"","Play this line 2x:","\"As a kid in the Caribbean...\" ","part 2 chords:","part 3 melody:"],"timing":[["W","W","W","W","W",null,"W","W","W","W","W","W","W","W","W"],["W","W","W","W","W","W","W","W","W","W","W","W",null,"W","W","W","W","W","W","W","W","W","W","W"],["W","W","W","W","W","W","W","W","W","W","W","W"],["W","W","W","W","W","W","W","W","W","W","W","W","W","W"],["W","W","W","W","W","W","W","W","W","W","W","W","W","W","W","W"],["W","W","W","W","W","W","W","W","W","W","W","W","W","W","W","W"]],"timingvisible":false,"tabcounter":16,"stave":5,"totalstaves":6,"instrument":"6guitar","selectedtuning":"6_standard","version":"13"}

Member for

7 months
Submitted by quarkansas on Thu, 2020-11-19 10:38