Reality melody (Lost Frequencies)

Chords

01234567891011121314151617181920212223
E
B
G
D
A
E
B
0 1 2 3 4 5 6 7 8 9 10 11 12 13 14 15 16 17 18 19 20 21 22 23
(/) Slide Up  (\) Slide Down  (h) Hammer On  (p) Pull Off  (b) Bend (r) Release (v) Vibrato

Stave 1:

E|-----4--4--------------------------0--0-----------------------------
B|--5--------5--4--4-----4--4--------------4--2--2--------2--4--2--0--
G|--------------------4--------4--------------------2-----------------
D|--------------------------------------------------------------------
A|--------------------------------------------------------------------
E|--------------------------------------------------------------------

Stave 2:

E|--0--------0--
B|--0--------2--
G|--1--------2--
D|--2-----6--2--
A|--2--6--4--0--
E|--0--4--------

							http://www.guitartabcreator.com
Instruments
{"strings":[[[".",4,4,".",".",".",".",".",".",".","_",0,0,".",".",".",".","_",".",".",".","."],[5,".",".",5,4,4,".",4,4,".","_",".",".",4,2,2,".","_",2,4,2,0],[".",".",".",".",".",".",4,".",".",4,"_",".",".",".",".",".",2,"_",".",".",".","."],[".",".",".",".",".",".",".",".",".",".","_",".",".",".",".",".",".","_",".",".",".","."],[".",".",".",".",".",".",".",".",".",".","_",".",".",".",".",".",".","_",".",".",".","."],[".",".",".",".",".",".",".",".",".",".","_",".",".",".",".",".",".","_",".",".",".","."]],[[0,".",".",0],[0,".",".",2],[1,".",".",2],[2,".",6,2],[2,6,4,0],[0,4,".","."]]],"numberofstrings":6,"notes":["E","B","G","D","A","E","B"],"capo":0,"stringnotes":["E4","B3","G3","D3","A2","E2"],"comments":["Stave 1:","Stave 2:"],"timing":[["W","W","W","W","W","W","W","W","W","W","W","W","W","W","W","W","W","W","W","W","W","W"],["W","W","W","W"]],"timingvisible":false,"tabcounter":3,"stave":1,"totalstaves":2,"instrument":"6guitar","selectedtuning":"6_standard","version":"13"}

Member for

7 months
Submitted by quarkansas on Fri, 2020-10-23 14:48