raining tacos

01234567891011121314151617181920212223
E
B
G
D
A
E
B
0 1 2 3 4 5 6 7 8 9 10 11 12 13 14 15 16 17 18 19 20 21 22 23
(/) Slide Up  (\) Slide Down  (h) Hammer On  (p) Pull Off  (b) Bend (r) Release (v) Vibrato

Stave 1:

E|-----------3--------3-----------------------------------
B|--4--4--6--------------6--4--3--3--4-----4--3-----3--3--
G|--------------3-----------------------0--------5--------
D|--------------------------------------------------------
A|--------------------------------------------------------
E|--------------------------------------------------------

Stave 2:

E|--------------------4--3--3--------4--4--3--3-----|--
B|--------------4--------------4-----------------6--|--
G|--5--5--5--5--------------------------------------|--
D|--------------------------------------------------|--
A|--------------------------------------------------|--
E|--------------------------------------------------|--

							http://www.guitartabcreator.com
Chords

Instruments
{"strings":[[[".",".",".",3,".","_",3,".",".",".",".",".",".",".",".",".",".","."],[4,4,6,".",".","_",".",6,4,3,3,4,".",4,3,".",3,3],[".",".",".",".",3,"_",".",".",".",".",".",".",0,".",".",5,".","."],[".",".",".",".",".","_",".",".",".",".",".",".",".",".",".",".",".","."],[".",".",".",".",".","_",".",".",".",".",".",".",".",".",".",".",".","."],[".",".",".",".",".","_",".",".",".",".",".",".",".",".",".",".",".","."]],[[".",".",".",".",".","_",4,3,3,".","_",4,4,3,3,".","|"],[".",".",".",".",4,"_",".",".",".",4,"_",".",".",".",".",6,"|"],[5,5,5,5,".","_",".",".",".",".","_",".",".",".",".",".","|"],[".",".",".",".",".","_",".",".",".",".","_",".",".",".",".",".","|"],[".",".",".",".",".","_",".",".",".",".","_",".",".",".",".",".","|"],[".",".",".",".",".","_",".",".",".",".","_",".",".",".",".",".","|"]]],"numberofstrings":6,"notes":["E","B","G","D","A","E","B"],"capo":0,"stringnotes":["E4","B3","G3","D3","A2","E2"],"comments":["Stave 1:","Stave 2:"],"timing":[["W","W","W","W","W",null,"W","W","W","W","W","W","W","W","W","W","W","W"],["W","W","W","W","W",null,"W","W","W","W",null,"W","W","W","W","W"]],"timingvisible":false,"tabcounter":17,"stave":1,"totalstaves":2,"instrument":"6guitar","selectedtuning":"6_standard","version":"13"}

Member for

8 months 2 weeks
Submitted by quarkansas on Fri, 2020-11-06 14:57