Over the Rainbow (Gmaj)

Chords

01234567891011121314151617181920212223
E
B
G
D
A
E
B
0 1 2 3 4 5 6 7 8 9 10 11 12 13 14 15 16 17 18 19 20 21 22 23
(/) Slide Up  (\) Slide Down  (h) Hammer On  (p) Pull Off  (b) Bend (r) Release (v) Vibrato

"Somewhere over the rainbow, way up high"

E|--------3-----2-----0--2--3--|--------0--------|--
B|-----------------3-----------|--------------3--|--
G|--0--------------------------|--0--------------|--
D|-----------------------------|-----------------|--
A|-----------------------------|-----------------|--
E|-----------------------------|-----------------|--

"There's a land that I heard of..."  (Repeat back to beginning 1X)

E|--------------------------------------------------|--
B|--------1-----0--------0--1-----------------0-----|--
G|-----------------0--2--------2--------0--2-----0--|--
D|--2--------------------------------4--------------|--
A|--------------------------------------------------|--
E|--------------------------------------------------|--

"Someday I'll wish upon a star and wake up where the clouds are far behind me"

E|--------------------------------------------------------0--0--|--
B|--3-----0--3--0--3--0--3--0--3--1--3--1--3--1--3--1--3--------|--
G|--------------------------------------------------------------|--
D|--------------------------------------------------------------|--
A|--------------------------------------------------------------|--
E|--------------------------------------------------------------|--

"Where troubles melt like lemon drops..."  (Repeat back to beginning 1X)

E|-----------------------------------0-----0-----0-----0--2--2--5--0--2--|--
B|--3-----0--3--0--3--0--3--0--3--2-----2-----2-----2--------------------|--
G|-----------------------------------------------------------------------|--
D|-----------------------------------------------------------------------|--
A|-----------------------------------------------------------------------|--
E|-----------------------------------------------------------------------|--

"Why oh why can't I?"

E|--------0--2--3--|--
B|--1--3-----------|--
G|-----------------|--
D|-----------------|--
A|-----------------|--
E|-----------------|--

							http://www.guitartabcreator.com
Instruments
{"strings":[[[".","_",3,"_",2,".",0,2,3,"|",".","_",0,"_",".","|"],[".","_",".","_",".",3,".",".",".","|",".","_",".","_",3,"|"],[0,"_",".","_",".",".",".",".",".","|",0,"_",".","_",".","|"],[".","_",".","_",".",".",".",".",".","|",".","_",".","_",".","|"],[".","_",".","_",".",".",".",".",".","|",".","_",".","_",".","|"],[".","_",".","_",".",".",".",".",".","|",".","_",".","_",".","|"]],[[".","_",".","_",".",".",".",".",".",".","_",".",".",".",".",".","|"],[".","_",1,"_",0,".",".",0,1,".","_",".",".",".",0,".","|"],[".","_",".","_",".",0,2,".",".",2,"_",".",0,2,".",0,"|"],[2,"_",".","_",".",".",".",".",".",".","_",4,".",".",".",".","|"],[".","_",".","_",".",".",".",".",".",".","_",".",".",".",".",".","|"],[".","_",".","_",".",".",".",".",".",".","_",".",".",".",".",".","|"]],[[".","_",".",".",".",".",".",".",".",".",".",".",".",".",".",".",".",".",0,0,"|"],[3,"_",0,3,0,3,0,3,0,3,1,3,1,3,1,3,1,3,".",".","|"],[".","_",".",".",".",".",".",".",".",".",".",".",".",".",".",".",".",".",".",".","|"],[".","_",".",".",".",".",".",".",".",".",".",".",".",".",".",".",".",".",".",".","|"],[".","_",".",".",".",".",".",".",".",".",".",".",".",".",".",".",".",".",".",".","|"],[".","_",".",".",".",".",".",".",".",".",".",".",".",".",".",".",".",".",".",".","|"]],[[".","_",".",".",".",".",".",".",".",".",".",0,".",0,".",0,".",0,2,2,5,0,2,"|"],[3,"_",0,3,0,3,0,3,0,3,2,".",2,".",2,".",2,".",".",".",".",".",".","|"],[".","_",".",".",".",".",".",".",".",".",".",".",".",".",".",".",".",".",".",".",".",".",".","|"],[".","_",".",".",".",".",".",".",".",".",".",".",".",".",".",".",".",".",".",".",".",".",".","|"],[".","_",".",".",".",".",".",".",".",".",".",".",".",".",".",".",".",".",".",".",".",".",".","|"],[".","_",".",".",".",".",".",".",".",".",".",".",".",".",".",".",".",".",".",".",".",".",".","|"]],[[".",".",0,2,3,"|"],[1,3,".",".",".","|"],[".",".",".",".",".","|"],[".",".",".",".",".","|"],[".",".",".",".",".","|"],[".",".",".",".",".","|"]]],"numberofstrings":6,"notes":["E","B","G","D","A","E","B"],"capo":0,"stringnotes":["E4","B3","G3","D3","A2","E2"],"comments":["\"Somewhere over the rainbow, way up high\"","\"There's a land that I heard of...\" (Repeat back to beginning 1X)","\"Someday I'll wish upon a star and wake up where the clouds are far behind me\"","\"Where troubles melt like lemon drops...\" (Repeat back to beginning 1X)","\"Why oh why can't I?\""],"timing":[["W","W","W","W","W","W","W","W","W",null,"W",null,"W",null,"W"],["W",null,"W",null,"W","W","W","W","W","W",null,"W","W","W","W","W"],["W",null,"W","W","W","W","W","W","W","W","W","W","W","W","W","W","W","W","W","W"],["W",null,"W","W","W","W","W","W","W","W","W","W","W","W","W","W","W","W","W","W","W","W","W"],["W","W","W","W","W"]],"timingvisible":false,"tabcounter":6,"stave":4,"totalstaves":5,"instrument":"6guitar","selectedtuning":"6_standard","version":"13"}

Member for

2 months 1 week
Submitted by quarkansas on Sat, 2020-06-27 16:14