Mr. Sandman melody 1

01234567891011121314151617181920212223
E
B
G
D
A
E
B
0 1 2 3 4 5 6 7 8 9 10 11 12 13 14 15 16 17 18 19 20 21 22 23
(/) Slide Up  (\) Slide Down  (h) Hammer On  (p) Pull Off  (b) Bend (r) Release (v) Vibrato

Stave 1:

E|-----0--2--0-----2--2--0--2-----3--3--2--3--2-----------------|--
B|--3-----------------------------------------------0--0-----0--|--
G|--------------------------------------------------------3-----|--
D|--------------------------------------------------------------|--
A|--------------------------------------------------------------|--
E|--------------------------------------------------------------|--

Stave 2:

E|--2--2--0--2-----0--2--2--0--2--0-----5--5--5--5--5--8--8--9--7--|--
B|-----------------------------------------------------------------|--
G|-----------------------------------------------------------------|--
D|-----------------------------------------------------------------|--
A|-----------------------------------------------------------------|--
E|-----------------------------------------------------------------|--

							http://www.guitartabcreator.com
Chords

Instruments
{"strings":[[[".",0,2,0,"_",2,2,0,2,"_",3,3,2,3,2,"_",".",".",".",".","|"],[3,".",".",".","_",".",".",".",".","_",".",".",".",".",".","_",0,0,".",0,"|"],[".",".",".",".","_",".",".",".",".","_",".",".",".",".",".","_",".",".",3,".","|"],[".",".",".",".","_",".",".",".",".","_",".",".",".",".",".","_",".",".",".",".","|"],[".",".",".",".","_",".",".",".",".","_",".",".",".",".",".","_",".",".",".",".","|"],[".",".",".",".","_",".",".",".",".","_",".",".",".",".",".","_",".",".",".",".","|"]],[[2,2,0,2,"_",0,2,2,0,2,0,"_",5,5,5,5,5,8,8,9,7,"|"],[".",".",".",".","_",".",".",".",".",".",".","_",".",".",".",".",".",".",".",".",".","|"],[".",".",".",".","_",".",".",".",".",".",".","_",".",".",".",".",".",".",".",".",".","|"],[".",".",".",".","_",".",".",".",".",".",".","_",".",".",".",".",".",".",".",".",".","|"],[".",".",".",".","_",".",".",".",".",".",".","_",".",".",".",".",".",".",".",".",".","|"],[".",".",".",".","_",".",".",".",".",".",".","_",".",".",".",".",".",".",".",".",".","|"]]],"numberofstrings":6,"notes":["E","B","G","D","A","E","B"],"capo":0,"stringnotes":["E4","B3","G3","D3","A2","E2"],"comments":["Stave 1:","Stave 2:"],"timing":[["W","W","W","W",null,"W","W","W","W",null,"W","W","W","W","W",null,"W","W","W","W"],["W","W","W","W","W","W","W","W","W","W","W",null,"W","W","W","W","W","W","W","W","W"]],"timingvisible":false,"tabcounter":22,"stave":1,"totalstaves":2,"instrument":"6guitar","selectedtuning":"6_standard","version":"13"}

Member for

8 months 2 weeks
Submitted by quarkansas on Wed, 2020-11-11 18:00