Mr. Sandman

Chords

01234567891011121314151617181920212223
E
B
G
D
A
E
B
0 1 2 3 4 5 6 7 8 9 10 11 12 13 14 15 16 17 18 19 20 21 22 23
(/) Slide Up  (\) Slide Down  (h) Hammer On  (p) Pull Off  (b) Bend (r) Release (v) Vibrato

Stave 1:

E|--------------------------------------------------------
B|--------------------------------------------------------
G|--------------------------------------------------------
D|--------------------------------------------------------
A|--------------------------0--1--2--2--2--2--------------
E|--3--3--3--3--2--2--2--2--------------------0--0--0--0--

Stave 2:

E|-----------------------------------|--
B|-----------------------------------|--
G|-----------------------------------|--
D|--------------------------0--0-----|--
A|--3--3--3--3--0--------------------|--
E|--------------------3--3--------3--|--

							http://www.guitartabcreator.com
Instruments
{"strings":[[[".",".",".",".",".",".",".",".",".",".",".",".",".",".",".",".",".","."],[".",".",".",".",".",".",".",".",".",".",".",".",".",".",".",".",".","."],[".",".",".",".",".",".",".",".",".",".",".",".",".",".",".",".",".","."],[".",".",".",".",".",".",".",".",".",".",".",".",".",".",".",".",".","."],[".",".",".",".",".",".",".",".",0,1,2,2,2,2,".",".",".","."],[3,3,3,3,2,2,2,2,".",".",".",".",".",".",0,0,0,0]],[[".",".",".",".",".","_",".",".",".",".",".","|"],[".",".",".",".",".","_",".",".",".",".",".","|"],[".",".",".",".",".","_",".",".",".",".",".","|"],[".",".",".",".",".","_",".",".",0,0,".","|"],[3,3,3,3,0,"_",".",".",".",".",".","|"],[".",".",".",".",".","_",3,3,".",".",3,"|"]]],"numberofstrings":6,"notes":["E","B","G","D","A","E","B"],"capo":0,"stringnotes":["E4","B3","G3","D3","A2","E2"],"comments":["Stave 1:","Stave 2:"],"timing":[["W","W","W","W","W","W","W","W","W","W","W","W","W","W","W","W","W","W"],["W","W","W","W","W",null,"W","W","W","W","W"]],"timingvisible":false,"tabcounter":12,"stave":1,"totalstaves":2,"instrument":"6guitar","selectedtuning":"6_standard","version":"13"}

Member for

8 months 2 weeks
Submitted by quarkansas on Wed, 2020-11-11 17:46