Memories (with capo on 2nd fret)

01234567891011121314151617181920212223
E
B
G
D
A
E
B
0 1 2 3 4 5 6 7 8 9 10 11 12 13 14 15 16 17 18 19 20 21 22 23
(/) Slide Up  (\) Slide Down  (h) Hammer On  (p) Pull Off  (b) Bend (r) Release (v) Vibrato

"Here's to the ones that we got..."

E|--0--------0--------0-----------------------------------|--
B|-----2--3-----2--3--------2-----0--2-----0--2-----0--2--|--
G|-----------------------------2--------2--------2--------|--
D|--------------------------------------------------------|--
A|--------------------------------------------------------|--
E|--------------------------------------------------------|--



E|--2--2--2-----2--2-----2--2--2--0--0-----2--2--2--2--2--5--4--|--
B|--------------------------------------------------------------|--
G|--------------------------------------------------------------|--
D|--------------------------------------------------------------|--
A|--------------------------------------------------------------|--
E|--------------------------------------------------------------|--

							http://www.guitartabcreator.com
Chords

Instruments
{"strings":[[[0,".",".",0,".",".",0,"_",".",".",".",".",".",".",".",".",".",".","|"],[".",2,3,".",2,3,".","_",2,".",0,2,".",0,2,".",0,2,"|"],[".",".",".",".",".",".",".","_",".",2,".",".",2,".",".",2,".",".","|"],[".",".",".",".",".",".",".","_",".",".",".",".",".",".",".",".",".",".","|"],[".",".",".",".",".",".",".","_",".",".",".",".",".",".",".",".",".",".","|"],[".",".",".",".",".",".",".","_",".",".",".",".",".",".",".",".",".",".","|"]],[[2,2,2,"_",2,2,"_",2,2,2,0,0,"_",2,2,2,2,2,5,4,"|"],[".",".",".","_",".",".","_",".",".",".",".",".","_",".",".",".",".",".",".",".","|"],[".",".",".","_",".",".","_",".",".",".",".",".","_",".",".",".",".",".",".",".","|"],[".",".",".","_",".",".","_",".",".",".",".",".","_",".",".",".",".",".",".",".","|"],[".",".",".","_",".",".","_",".",".",".",".",".","_",".",".",".",".",".",".",".","|"],[".",".",".","_",".",".","_",".",".",".",".",".","_",".",".",".",".",".",".",".","|"]]],"numberofstrings":6,"notes":["E","B","G","D","A","E","B"],"capo":0,"stringnotes":["E4","B3","G3","D3","A2","E2"],"comments":["\"Here's to the ones that we got...\"",""],"timing":[["W","W","W","W","W","W","W",null,"W","W","W","W","W","W","W","W","W","W"],["W","W","W",null,"W","W",null,"W","W","W","W","W",null,"W","W","W","W","W","W","W","W","W","W"]],"timingvisible":false,"tabcounter":21,"stave":1,"totalstaves":2,"instrument":"6guitar","selectedtuning":"6_standard","version":"13"}

Member for

8 months 2 weeks
Submitted by quarkansas on Tue, 2020-11-17 19:19