Mask of My Own Face

01234567891011121314151617181920212223
E
B
G
D
A
E
B
0 1 2 3 4 5 6 7 8 9 10 11 12 13 14 15 16 17 18 19 20 21 22 23
(/) Slide Up  (\) Slide Down  (h) Hammer On  (p) Pull Off  (b) Bend (r) Release (v) Vibrato

Intro:

E|--8--8--------8--8--------8--8--------8--8----------12--12--8--8--|--
B|--------6--8--------6--8--------6--8--------10--10----------------|--
G|------------------------------------------------------------------|--
D|------------------------------------------------------------------|--
A|------------------------------------------------------------------|--
E|------------------------------------------------------------------|--

Bass:

E|-----------------------|--
B|-----------------------|--
G|-----------------------|--
D|-----------------------|--
A|--5--3--------3--1-----|--
E|--------1--1--------1--|--

							http://www.guitartabcreator.com
Chords

Instruments
{"strings":[[[8,8,".",".",8,8,".",".",8,8,".",".",8,8,".",".",12,12,8,8,"|"],[".",".",6,8,".",".",6,8,".",".",6,8,".",".",10,10,".",".",".",".","|"],[".",".",".",".",".",".",".",".",".",".",".",".",".",".",".",".",".",".",".",".","|"],[".",".",".",".",".",".",".",".",".",".",".",".",".",".",".",".",".",".",".",".","|"],[".",".",".",".",".",".",".",".",".",".",".",".",".",".",".",".",".",".",".",".","|"],[".",".",".",".",".",".",".",".",".",".",".",".",".",".",".",".",".",".",".",".","|"]],[[".",".",".",".",".",".",".","|"],[".",".",".",".",".",".",".","|"],[".",".",".",".",".",".",".","|"],[".",".",".",".",".",".",".","|"],[5,3,".",".",3,1,".","|"],[".",".",1,1,".",".",1,"|"]]],"numberofstrings":6,"notes":["E","B","G","D","A","E","B"],"capo":0,"stringnotes":["E4","B3","G3","D3","A2","E2"],"comments":["Intro:","Bass:"],"timing":[["W","W","W","W","W","W","W","W","W","W","W","W","W","W","W","W","W","W","W","W"],["W","W","W","W","W","W","W"]],"timingvisible":false,"tabcounter":8,"stave":1,"totalstaves":2,"instrument":"6guitar","selectedtuning":"6_standard","version":"13"}

Member for

8 months 2 weeks
Submitted by quarkansas on Thu, 2020-11-12 19:28