manha arpeggios

01234567891011121314151617181920212223
E
B
G
D
A
E
B
0 1 2 3 4 5 6 7 8 9 10 11 12 13 14 15 16 17 18 19 20 21 22 23
(/) Slide Up  (\) Slide Down  (h) Hammer On  (p) Pull Off  (b) Bend (r) Release (v) Vibrato

Am7 - Bm7b5 - E7

E|--------------5-------------------------------7-------------------------7--10--7--------
B|--------5--8-----8--5---------------------10-----10------------------9------------9-----
G|-----5-----------------5-----------7--10-------------10--7--------9------------------9--
D|--7-----------------------7-----9---------------------------9---------------------------
A|----------------------------------------------------------------------------------------
E|----------------------------------------------------------------------------------------

Am7 - Bm7b5 - E7

E|----------------------------------------------7--10--
B|--------5--8--5---------------------10-----9---------
G|-----5-----------5-----------7--10------9------------
D|--7-----------------7-----9--------------------------
A|-----------------------------------------------------
E|-----------------------------------------------------

							http://www.guitartabcreator.com
Chords

Instruments
{"strings":[[[".",".",".",".",5,".",".",".",".","_",".",".",".",".",7,".",".",".",".","_",".",".",7,10,7,".","."],[".",".",5,8,".",8,5,".",".","_",".",".",".",10,".",10,".",".",".","_",".",9,".",".",".",9,"."],[".",5,".",".",".",".",".",5,".","_",".",7,10,".",".",".",10,7,".","_",9,".",".",".",".",".",9],[7,".",".",".",".",".",".",".",7,"_",9,".",".",".",".",".",".",".",9,"_",".",".",".",".",".",".","."],[".",".",".",".",".",".",".",".",".","_",".",".",".",".",".",".",".",".",".","_",".",".",".",".",".",".","."],[".",".",".",".",".",".",".",".",".","_",".",".",".",".",".",".",".",".",".","_",".",".",".",".",".",".","."]],[[".",".",".",".",".",".",".","_",".",".",".",".",".",".",7,10],[".",".",5,8,5,".",".","_",".",".",".",10,".",9,".","."],[".",5,".",".",".",5,".","_",".",7,10,".",9,".",".","."],[7,".",".",".",".",".",7,"_",9,".",".",".",".",".",".","."],[".",".",".",".",".",".",".","_",".",".",".",".",".",".",".","."],[".",".",".",".",".",".",".","_",".",".",".",".",".",".",".","."]]],"numberofstrings":6,"notes":["E","B","G","D","A","E","B"],"capo":0,"stringnotes":["E4","B3","G3","D3","A2","E2"],"comments":["Am7 - Bm7b5 - E7","Am7 - Bm7b5 - E7"],"timing":[["W","W","W","W","W","W","W","W","W",null,"W","W","W","W","W","W","W","W","W",null,"W","W","W","W","W","W","W"],["W","W","W","W","W","W","W",null,"W","W","W","W","W","W","W","W"]],"timingvisible":false,"tabcounter":16,"stave":1,"totalstaves":2,"instrument":"6guitar","selectedtuning":"6_standard","version":"13"}

Member for

11 months 2 weeks
Submitted by quarkansas on Tue, 2021-01-12 15:04