Mandalorian 2

01234567891011121314151617181920212223
E
B
G
D
A
E
B
0 1 2 3 4 5 6 7 8 9 10 11 12 13 14 15 16 17 18 19 20 21 22 23
(/) Slide Up  (\) Slide Down  (h) Hammer On  (p) Pull Off  (b) Bend (r) Release (v) Vibrato

B section:

E|--6--8--9--8--9--8--9--11--9--8--6-----6--6--6--6--6--6--4--6--7--------
B|------------------------------------------------------------------7--4--
G|------------------------------------------------------------------------
D|------------------------------------------------------------------------
A|------------------------------------------------------------------------
E|------------------------------------------------------------------------



E|--6--6--6--6--6--6--4--6--8--------10--------12--
B|-----------------------------8--6------9--8------
G|-------------------------------------------------
D|-------------------------------------------------
A|-------------------------------------------------
E|-------------------------------------------------



E|--13--12--10--12-----10--12--13--15--13--13--12-----10--12--13--12--10--10-----
B|-------------------------------------------------------------------------------
G|-------------------------------------------------------------------------------
D|-------------------------------------------------------------------------------
A|-------------------------------------------------------------------------------
E|-------------------------------------------------------------------------------



E|--8--10--8------------------13--12--10--12-----10--12--13--10--12--13--12--
B|------------11--9--8--9----------------------------------------------------
G|---------------------------------------------------------------------------
D|---------------------------------------------------------------------------
A|---------------------------------------------------------------------------
E|---------------------------------------------------------------------------



E|--10--12--13--12--10--10-----8--10--8---------10----------12----------13--
B|---------------------------------------8----------------------------------
G|------------------------------------------10------10--12------10--12------
D|--------------------------------------------------------------------------
A|--------------------------------------------------------------------------
E|--------------------------------------------------------------------------



E|----------15----------16--13--16--15--|--
B|--------------------------------------|--
G|--10--12------10--12------------------|--
D|--------------------------------------|--
A|--------------------------------------|--
E|--------------------------------------|--

							http://www.guitartabcreator.com
Chords

Instruments
{"strings":[[[6,8,9,8,9,8,9,11,9,8,6,"_",6,6,6,6,6,6,4,6,7,".","."],[".",".",".",".",".",".",".",".",".",".",".","_",".",".",".",".",".",".",".",".",".",7,4],[".",".",".",".",".",".",".",".",".",".",".","_",".",".",".",".",".",".",".",".",".",".","."],[".",".",".",".",".",".",".",".",".",".",".","_",".",".",".",".",".",".",".",".",".",".","."],[".",".",".",".",".",".",".",".",".",".",".","_",".",".",".",".",".",".",".",".",".",".","."],[".",".",".",".",".",".",".",".",".",".",".","_",".",".",".",".",".",".",".",".",".",".","."]],[[6,6,6,6,6,6,4,6,8,".",".",10,".",".",12],[".",".",".",".",".",".",".",".",".",8,6,".",9,8,"."],[".",".",".",".",".",".",".",".",".",".",".",".",".",".","."],[".",".",".",".",".",".",".",".",".",".",".",".",".",".","."],[".",".",".",".",".",".",".",".",".",".",".",".",".",".","."],[".",".",".",".",".",".",".",".",".",".",".",".",".",".","."]],[[13,12,10,12,"_",10,12,13,15,13,13,12,"_",10,12,13,12,10,10,"_"],[".",".",".",".","_",".",".",".",".",".",".",".","_",".",".",".",".",".",".","_"],[".",".",".",".","_",".",".",".",".",".",".",".","_",".",".",".",".",".",".","_"],[".",".",".",".","_",".",".",".",".",".",".",".","_",".",".",".",".",".",".","_"],[".",".",".",".","_",".",".",".",".",".",".",".","_",".",".",".",".",".",".","_"],[".",".",".",".","_",".",".",".",".",".",".",".","_",".",".",".",".",".",".","_"]],[[8,10,8,".",".",".",".","_",13,12,10,12,"_",10,12,13,10,12,13,12],[".",".",".",11,9,8,9,"_",".",".",".",".","_",".",".",".",".",".",".","."],[".",".",".",".",".",".",".","_",".",".",".",".","_",".",".",".",".",".",".","."],[".",".",".",".",".",".",".","_",".",".",".",".","_",".",".",".",".",".",".","."],[".",".",".",".",".",".",".","_",".",".",".",".","_",".",".",".",".",".",".","."],[".",".",".",".",".",".",".","_",".",".",".",".","_",".",".",".",".",".",".","."]],[[10,12,13,12,10,10,"_",8,10,8,".",".",10,".",".",12,".",".",13],[".",".",".",".",".",".","_",".",".",".",8,".",".",".",".",".",".",".","."],[".",".",".",".",".",".","_",".",".",".",".",10,".",10,12,".",10,12,"."],[".",".",".",".",".",".","_",".",".",".",".",".",".",".",".",".",".",".","."],[".",".",".",".",".",".","_",".",".",".",".",".",".",".",".",".",".",".","."],[".",".",".",".",".",".","_",".",".",".",".",".",".",".",".",".",".",".","."]],[[".",".",15,".",".",16,13,16,15,"|"],[".",".",".",".",".",".",".",".",".","|"],[10,12,".",10,12,".",".",".",".","|"],[".",".",".",".",".",".",".",".",".","|"],[".",".",".",".",".",".",".",".",".","|"],[".",".",".",".",".",".",".",".",".","|"]]],"numberofstrings":6,"notes":["E","B","G","D","A","E","B"],"capo":0,"stringnotes":["E4","B3","G3","D3","A2","E2"],"comments":["B section:","","","","",""],"timing":[["W","W","W","W","W","W","W","W","W","W","W",null,"W","W","W","W","W","W","W","W","W","W","W"],["W","W","W","W","W","W","W","W","W","W","W","W","W","W","W"],["W","W","W","W",null,"W","W","W","W","W","W","W","W","W","W","W","W","W","W"],["W","W","W","W","W","W","W",null,"W","W","W","W",null,"W","W","W","W","W","W","W","W","W","W","W","W","W"],["W","W","W","W","W","W","W","W","W","W","W","W","W","W","W","W","W","W","W","W","W"],["W","W","W","W","W","W","W","W","W"]],"timingvisible":false,"tabcounter":10,"stave":5,"totalstaves":6,"instrument":"6guitar","selectedtuning":"6_standard","version":"13"}

Member for

10 months 1 week
Submitted by quarkansas on Fri, 2020-12-18 15:51