This Land is Your Land (chord melody)

Chords

01234567891011121314151617181920212223
E
B
G
D
A
E
B
0 1 2 3 4 5 6 7 8 9 10 11 12 13 14 15 16 17 18 19 20 21 22 23
(/) Slide Up  (\) Slide Down  (h) Hammer On  (p) Pull Off  (b) Bend (r) Release (v) Vibrato



E|--------------------------------------------------------------------|--
B|--------0--1--1-----1--------0--0-----------0-----------------------|--
G|--0--2-----0--0--------0--2--0--0--------0-----2--2-----2--2--0--2--|--
D|-----------2--2--------------0--0-----0--------0--0-----------------|--
A|-----------3--3--------------2--2-----------------------------------|--
E|-----------------------------3--3-----------------------------------|--



E|--------------------------------------------------------------------3--|--
B|--0--0-----------0--1--1-----1--------0--0--------------------------0--|--
G|--0--0-----0--2-----0--0--------0--2--0--0-----2--2--2--2--------2--0--|--
D|--0--0--------------2--2--------------0--0-----0--0-----4--0--4-----0--|--
A|--2--2--------------3--3--------------2--2--------------------------2--|--
E|--3--3--------------------------------3--3--------------------------3--|--

Upper Octave single note melody

E|---------7--8--8-----8---------7--7-----------7----------------------------7--7--|--
B|--8--10-----------------8--10--------------8-----10--10-----10--10--8--10--------|--
G|----------------------------------------7----------------------------------------|--
D|---------------------------------------------------------------------------------|--
A|---------------------------------------------------------------------------------|--
E|---------------------------------------------------------------------------------|--



E|---------7--8--8-----8---------7--7---------------------------------------|--
B|--8--10-----------------8--10-----------10--10-----10--7--------7--10--8--|--
G|-------------------------------------------------------------7------------|--
D|--------------------------------------------------------------------------|--
A|--------------------------------------------------------------------------|--
E|--------------------------------------------------------------------------|--

							http://www.guitartabcreator.com
Instruments
{"strings":[[[".",".",".",".",".","_",".",".",".",".",".","_",".",".",".",".",".","_",".",".",".",".","|"],[".",".",0,1,1,"_",1,".",".",0,0,"_",".",".",0,".",".","_",".",".",".",".","|"],[0,2,".",0,0,"_",".",0,2,0,0,"_",".",0,".",2,2,"_",2,2,0,2,"|"],[".",".",".",2,2,"_",".",".",".",0,0,"_",0,".",".",0,0,"_",".",".",".",".","|"],[".",".",".",3,3,"_",".",".",".",2,2,"_",".",".",".",".",".","_",".",".",".",".","|"],[".",".",".",".",".","_",".",".",".",3,3,"_",".",".",".",".",".","_",".",".",".",".","|"]],[[".",".","_",".",".",".",".",".","_",".",".",".",".",".","_",".",".",".",".",".",".",".",3,"|"],[0,0,"_",".",".",0,1,1,"_",1,".",".",0,0,"_",".",".",".",".",".",".",".",0,"|"],[0,0,"_",0,2,".",0,0,"_",".",0,2,0,0,"_",2,2,2,2,".",".",2,0,"|"],[0,0,"_",".",".",".",2,2,"_",".",".",".",0,0,"_",0,0,".",4,0,4,".",0,"|"],[2,2,"_",".",".",".",3,3,"_",".",".",".",2,2,"_",".",".",".",".",".",".",".",2,"|"],[3,3,"_",".",".",".",".",".","_",".",".",".",3,3,"_",".",".",".",".",".",".",".",3,"|"]],[[".",".",7,8,8,"_",8,".",".",7,7,"_",".",".",7,".",".","_",".",".",".",".",7,7,"|"],[8,10,".",".",".","_",".",8,10,".",".","_",".",8,".",10,10,"_",10,10,8,10,".",".","|"],[".",".",".",".",".","_",".",".",".",".",".","_",7,".",".",".",".","_",".",".",".",".",".",".","|"],[".",".",".",".",".","_",".",".",".",".",".","_",".",".",".",".",".","_",".",".",".",".",".",".","|"],[".",".",".",".",".","_",".",".",".",".",".","_",".",".",".",".",".","_",".",".",".",".",".",".","|"],[".",".",".",".",".","_",".",".",".",".",".","_",".",".",".",".",".","_",".",".",".",".",".",".","|"]],[[".",".",7,8,8,"_",8,".",".",7,7,"_",".",".","_",".",".","_",".",".",".",".","|"],[8,10,".",".",".","_",".",8,10,".",".","_",10,10,"_",10,7,"_",".",7,10,8,"|"],[".",".",".",".",".","_",".",".",".",".",".","_",".",".","_",".",".","_",7,".",".",".","|"],[".",".",".",".",".","_",".",".",".",".",".","_",".",".","_",".",".","_",".",".",".",".","|"],[".",".",".",".",".","_",".",".",".",".",".","_",".",".","_",".",".","_",".",".",".",".","|"],[".",".",".",".",".","_",".",".",".",".",".","_",".",".","_",".",".","_",".",".",".",".","|"]]],"numberofstrings":6,"notes":["E","B","G","D","A","E","B"],"capo":0,"stringnotes":["E4","B3","G3","D3","A2","E2"],"comments":["","","Upper Octave single note melody",""],"timing":[["W","W","W","W","W",null,"W","W","W","W","W",null,"W","W","W","W","W",null,"W","W","W","W"],["W","W",null,"W","W","W","W","W",null,"W","W","W","W","W",null,"W","W","W","W","W","W","W","W"],["W","W","W","W","W",null,"W","W","W","W","W",null,"W","W","W","W","W",null,"W","W","W","W","W","W"],["W","W","W","W","W",null,"W","W","W","W","W",null,"W","W",null,"W","W","W","W","W","W","W"]],"timingvisible":false,"tabcounter":23,"stave":3,"totalstaves":4,"instrument":"6guitar","selectedtuning":"6_standard","version":"13"}

Member for

7 months
Submitted by quarkansas on Sun, 2020-10-18 19:02