Illuminati song

Chords

01234567891011121314151617181920212223
E
B
G
D
A
E
B
0 1 2 3 4 5 6 7 8 9 10 11 12 13 14 15 16 17 18 19 20 21 22 23
(/) Slide Up  (\) Slide Down  (h) Hammer On  (p) Pull Off  (b) Bend (r) Release (v) Vibrato



E|-----0-----0--3--0--------0-----0--5--0-----
B|--------3--------------------3--------------
G|--2--------------------2--------------------
D|--------------------------------------------
A|--------------------------------------------
E|--------------------------------------------



E|--8--7--5--3--5--0--
B|--------------------
G|--------------------
D|--------------------
A|--------------------
E|--------------------

							http://www.guitartabcreator.com
Instruments
{"strings":[[[".",0,".",0,3,0,"_",".",0,".",0,5,0,"_"],[".",".",3,".",".",".","_",".",".",3,".",".",".","_"],[2,".",".",".",".",".","_",2,".",".",".",".",".","_"],[".",".",".",".",".",".","_",".",".",".",".",".",".","_"],[".",".",".",".",".",".","_",".",".",".",".",".",".","_"],[".",".",".",".",".",".","_",".",".",".",".",".",".","_"]],[[8,7,5,3,5,0],[".",".",".",".",".","."],[".",".",".",".",".","."],[".",".",".",".",".","."],[".",".",".",".",".","."],[".",".",".",".",".","."]]],"numberofstrings":6,"notes":["E","B","G","D","A","E","B"],"capo":0,"stringnotes":["E4","B3","G3","D3","A2","E2"],"comments":["",""],"timing":[["W","W","W","W","W","W",null,"W","W","W","W","W","W"],["W","W","W","W","W","W"]],"timingvisible":false,"tabcounter":6,"stave":1,"totalstaves":2,"instrument":"6guitar","selectedtuning":"6_standard","version":"13"}

Member for

7 months
Submitted by quarkansas on Fri, 2020-10-30 17:55