Honeybee

Chords

01234567891011121314151617181920212223
E
B
G
D
A
E
B
0 1 2 3 4 5 6 7 8 9 10 11 12 13 14 15 16 17 18 19 20 21 22 23
(/) Slide Up  (\) Slide Down  (h) Hammer On  (p) Pull Off  (b) Bend (r) Release (v) Vibrato

Slow bass part:

E|-----------------------------|-----------------|--
B|-----------------------------|-----------------|--
G|-----------------------------|-----------------|--
D|-----------------------------|--------------0--|--
A|--0-----------------------0--|-----------------|--
E|--------0-----2-----0--------|--2-----0--------|--



E|--0--2-----------0--2--5--4--2--0--0--2-----
B|--------2-----2--------------------------2--
G|--------------------------------------------
D|--------------------------------------------
A|--------------------------------------------
E|--------------------------------------------

Melody:

E|-----------0--------------------------------------------
B|--2--0--2-----2--0-----0--2--------2--2--2--2--0--------
G|--------------------2-----------------------------2-----
D|-----------------------------4-----------------------4--
A|--------------------------------------------------------
E|--------------------------------------------------------

Stave 4:

E|--------------------------------------------|--
B|--2--2--2--2--0-----------2--2--2--2--0-----|--
G|-----------------2-----------------------2--|--
D|--------------------4-----------------------|--
A|--------------------------------------------|--
E|--------------------------------------------|--

							http://www.guitartabcreator.com
Instruments
{"strings":[[[".","_",".","_",".","_",".","_",".","|",".","_",".","_",".","|"],[".","_",".","_",".","_",".","_",".","|",".","_",".","_",".","|"],[".","_",".","_",".","_",".","_",".","|",".","_",".","_",".","|"],[".","_",".","_",".","_",".","_",".","|",".","_",".","_",0,"|"],[0,"_",".","_",".","_",".","_",0,"|",".","_",".","_",".","|"],[".","_",0,"_",2,"_",0,"_",".","|",2,"_",0,"_",".","|"]],[[0,2,".","_",".",0,2,5,4,2,0,0,2,"."],[".",".",2,"_",2,".",".",".",".",".",".",".",".",2],[".",".",".","_",".",".",".",".",".",".",".",".",".","."],[".",".",".","_",".",".",".",".",".",".",".",".",".","."],[".",".",".","_",".",".",".",".",".",".",".",".",".","."],[".",".",".","_",".",".",".",".",".",".",".",".",".","."]],[[".",".",".",0,".",".",".",".",".",".","_",".",".",".",".",".",".","."],[2,0,2,".",2,0,".",0,2,".","_",2,2,2,2,0,".","."],[".",".",".",".",".",".",2,".",".",".","_",".",".",".",".",".",2,"."],[".",".",".",".",".",".",".",".",".",4,"_",".",".",".",".",".",".",4],[".",".",".",".",".",".",".",".",".",".","_",".",".",".",".",".",".","."],[".",".",".",".",".",".",".",".",".",".","_",".",".",".",".",".",".","."]],[[".",".",".",".",".",".",".","_",".",".",".",".",".",".","|"],[2,2,2,2,0,".",".","_",2,2,2,2,0,".","|"],[".",".",".",".",".",2,".","_",".",".",".",".",".",2,"|"],[".",".",".",".",".",".",4,"_",".",".",".",".",".",".","|"],[".",".",".",".",".",".",".","_",".",".",".",".",".",".","|"],[".",".",".",".",".",".",".","_",".",".",".",".",".",".","|"]]],"numberofstrings":6,"notes":["E","B","G","D","A","E","B"],"capo":0,"stringnotes":["E4","B3","G3","D3","A2","E2"],"comments":["Slow bass part:","","Melody:","Stave 4:"],"timing":[["W","W","W","W","W",null,"W",null,"W",null,"W",null,"W",null,"W"],["W","W","W",null,"W","W","W","W","W","W","W","W","W","W"],["W","W","W","W","W","W","W","W","W","W",null,"W","W","W","W","W","W","W"],["W","W","W","W","W","W","W",null,"W","W","W","W","W","W"]],"timingvisible":false,"tabcounter":15,"stave":3,"totalstaves":4,"instrument":"6guitar","selectedtuning":"6_standard","version":"13"}

Member for

3 months 1 week
Submitted by quarkansas on Thu, 2020-07-30 13:11