Do what you gotta do

Chords

01234567891011121314151617181920212223
E
B
G
D
A
E
B
0 1 2 3 4 5 6 7 8 9 10 11 12 13 14 15 16 17 18 19 20 21 22 23
(/) Slide Up  (\) Slide Down  (h) Hammer On  (p) Pull Off  (b) Bend (r) Release (v) Vibrato

Intro:

E|--------------------------------------------------|--
B|--------------------------------------------------|--
G|--------------------------------------------------|--
D|--0--0--0--0--0--0--0--0--0--0--0--0--0--0--0--0--|--
A|--------------------------------------------------|--
E|--------------------------------------------------|--



E|--------------------------|--
B|--3--1--------------------|--
G|--------2--0--------------|--
D|--------------3--0-----0--|--
A|--------------------3-----|--
E|--------------------------|--

"Listen little girl, you're talkin to a god..."

E|--------------------------------------------------------2--2--|--
B|--6--6--5--3--6-----6--6--5--3--3-----0--3--3--0--3--0--------|--
G|--------------------------------------------------------------|--
D|--------------------------------------------------------------|--
A|--------------------------------------------------------------|--
E|--------------------------------------------------------------|--

"Kindness ain't my brand..."

E|--5--5--3--5--1-----------------------2--2--|--
B|--------------------0--3--3--0--3--0--------|--
G|--------------------------------------------|--
D|--------------------------------------------|--
A|--------------------------------------------|--
E|--------------------------------------------|--

"I only need you cuz I came here for something..."

E|-----------------------------------------------------|--
B|-----------------------------------------------------|--
G|--0--0--0--0--0--0--0--0--1--2--2--2--2--2--2--2--2--|--
D|-----------------------------------------------------|--
A|-----------------------------------------------------|--
E|-----------------------------------------------------|--

"I did what I had to do..."

E|--2--2--0-----------2-----3--2--3--2--3--2--5--2--0-----|--
B|-----------3--3--0-----------------------------------3--|--
G|--------------------------------------------------------|--
D|--------------------------------------------------------|--
A|--------------------------------------------------------|--
E|--------------------------------------------------------|--

"You can learn a thing or two..."

E|--2--2--0-----------2--------0--0--0--0-----1--0--0--------------
B|-----------3--3--0--------3--------------3-----------3--0--3-----
G|-----------------------------------------------------------------
D|-----------------------------------------------------------------
A|-----------------------------------------------------------------
E|-----------------------------------------------------------------

							http://www.guitartabcreator.com
Instruments
{"strings":[[[".",".",".",".",".",".",".",".",".",".",".",".",".",".",".",".","|"],[".",".",".",".",".",".",".",".",".",".",".",".",".",".",".",".","|"],[".",".",".",".",".",".",".",".",".",".",".",".",".",".",".",".","|"],[0,0,0,0,0,0,0,0,0,0,0,0,0,0,0,0,"|"],[".",".",".",".",".",".",".",".",".",".",".",".",".",".",".",".","|"],[".",".",".",".",".",".",".",".",".",".",".",".",".",".",".",".","|"]],[[".",".",".",".",".",".",".",".","|"],[3,1,".",".",".",".",".",".","|"],[".",".",2,0,".",".",".",".","|"],[".",".",".",".",3,0,".",0,"|"],[".",".",".",".",".",".",3,".","|"],[".",".",".",".",".",".",".",".","|"]],[[".",".",".",".",".","_",".",".",".",".",".","_",".",".",".",".",".",".",2,2,"|"],[6,6,5,3,6,"_",6,6,5,3,3,"_",0,3,3,0,3,0,".",".","|"],[".",".",".",".",".","_",".",".",".",".",".","_",".",".",".",".",".",".",".",".","|"],[".",".",".",".",".","_",".",".",".",".",".","_",".",".",".",".",".",".",".",".","|"],[".",".",".",".",".","_",".",".",".",".",".","_",".",".",".",".",".",".",".",".","|"],[".",".",".",".",".","_",".",".",".",".",".","_",".",".",".",".",".",".",".",".","|"]],[[5,5,3,5,1,"_",".",".",".",".",".",".",2,2,"|"],[".",".",".",".",".","_",0,3,3,0,3,0,".",".","|"],[".",".",".",".",".","_",".",".",".",".",".",".",".",".","|"],[".",".",".",".",".","_",".",".",".",".",".",".",".",".","|"],[".",".",".",".",".","_",".",".",".",".",".",".",".",".","|"],[".",".",".",".",".","_",".",".",".",".",".",".",".",".","|"]],[[".",".",".",".",".",".",".",".",".",".",".",".",".",".",".",".",".","|"],[".",".",".",".",".",".",".",".",".",".",".",".",".",".",".",".",".","|"],[0,0,0,0,0,0,0,0,1,2,2,2,2,2,2,2,2,"|"],[".",".",".",".",".",".",".",".",".",".",".",".",".",".",".",".",".","|"],[".",".",".",".",".",".",".",".",".",".",".",".",".",".",".",".",".","|"],[".",".",".",".",".",".",".",".",".",".",".",".",".",".",".",".",".","|"]],[[2,2,0,".",".",".",2,"_",3,2,3,2,3,2,5,2,0,".","|"],[".",".",".",3,3,0,".","_",".",".",".",".",".",".",".",".",".",3,"|"],[".",".",".",".",".",".",".","_",".",".",".",".",".",".",".",".",".",".","|"],[".",".",".",".",".",".",".","_",".",".",".",".",".",".",".",".",".",".","|"],[".",".",".",".",".",".",".","_",".",".",".",".",".",".",".",".",".",".","|"],[".",".",".",".",".",".",".","_",".",".",".",".",".",".",".",".",".",".","|"]],[[2,2,0,".",".",".",2,"_",".",0,0,0,0,".",1,0,0,".",".",".","_"],[".",".",".",3,3,0,".","_",3,".",".",".",".",3,".",".",".",3,0,3,"_"],[".",".",".",".",".",".",".","_",".",".",".",".",".",".",".",".",".",".",".",".","_"],[".",".",".",".",".",".",".","_",".",".",".",".",".",".",".",".",".",".",".",".","_"],[".",".",".",".",".",".",".","_",".",".",".",".",".",".",".",".",".",".",".",".","_"],[".",".",".",".",".",".",".","_",".",".",".",".",".",".",".",".",".",".",".",".","_"]]],"numberofstrings":6,"notes":["E","B","G","D","A","E","B"],"capo":0,"stringnotes":["E4","B3","G3","D3","A2","E2"],"comments":["Intro:","","\"Listen little girl, you're talkin to a god...\"","\"Kindness ain't my brand...\"","\"I only need you cuz I came here for something...\"","\"I did what I had to do...\"","\"You can learn a thing or two...\""],"timing":[["W","W","W","W","W","W","W","W","W","W","W","W","W","W","W","W"],["W","W","W","W","W","W","W","W"],["W","W","W","W","W","W","W","W","W","W","W",null,"W","W","W","W","W","W","W","W"],["W","W","W","W","W",null,"W","W","W","W","W","W","W","W"],["W","W","W","W","W","W","W","W","W","W","W","W","W","W","W","W","W"],["W","W","W","W","W","W","W","W","W","W","W","W","W","W","W","W","W","W"],["W","W","W","W","W","W","W",null,"W","W","W","W","W","W","W","W","W","W","W","W"]],"timingvisible":false,"tabcounter":21,"stave":6,"totalstaves":7,"instrument":"6guitar","selectedtuning":"6_standard","version":"13"}

Member for

5 months 2 weeks
Submitted by quarkansas on Fri, 2020-10-16 18:33