city boy

01234567891011121314151617181920212223
E
B
G
D
A
E
B
0 1 2 3 4 5 6 7 8 9 10 11 12 13 14 15 16 17 18 19 20 21 22 23
(/) Slide Up  (\) Slide Down  (h) Hammer On  (p) Pull Off  (b) Bend (r) Release (v) Vibrato

Intro:

E|--0--0--0--0-----2--2--2-----2--2-----0--0--0--0--0--0--0--0--0--0--0--|--
B|--0--0--0--0-----0--0--0-----0--0-----2--2--2--0--2--0--2--0--2--0--2--|--
G|--1--1--1--1-----2--2--2-----2--2-----2--2--2--0--2--0--2--0--2--0--2--|--
D|--2--2--2--2-----1--1--1-----1--1-----2--2--2--0--2--0--2--0--2--0--2--|--
A|--2--2--2--2-----2--2--2-----2--2-----0--0--0--0--0--0--0--0--0--0--0--|--
E|--0--0--0--0-----------------------------------------------------------|--

Verse progression: 2x

E|--0--0--0--0-----2--2--2--2--2-----0--0--0--0--0-----0--0--0--0--0--|--
B|--0--0--0--0-----0--0--0--0--0-----2--2--2--2--2-----0--0--0--0--0--|--
G|--1--1--1--1-----2--2--2--2--2-----2--2--2--2--2-----1--1--1--1--1--|--
D|--2--2--2--2-----1--1--1--1--1-----2--2--2--2--2-----2--2--2--2--2--|--
A|--2--2--2--2-----2--2--2--2--2-----0--0--0--0--0-----2--2--2--2--2--|--
E|--0--0--0--0-----------------------------------------0--0--0--0--0--|--

strum A chord 8x, A7 chord 8x, then play D chord once and rest for 3 beats:

E|--0--|--0--|--2--|--|--0--0--0--2--2--2--0--0--0--2--2--2--0--0--0--2--2--2--|--
B|--2--|--2--|--3--|--|--2--2--2--3--3--3--2--2--2--3--3--3--2--2--2--3--3--3--|--
G|--2--|--0--|--2--|--|--2--2--2--2--2--2--2--2--2--2--2--2--2--2--2--2--2--2--|--
D|--2--|--2--|--0--|--|--2--2--2--0--0--0--2--2--2--0--0--0--2--2--2--0--0--0--|--
A|--0--|--0--|-----|--|--0--0--0-----------0--0--0-----------0--0--0-----------|--
E|-----|-----|-----|--|--------------------------------------------------------|--

Pre-chorus and chorus:

E|--0--0--0--2--2--2--0--0--0--|--0--0--------3--3--0--0--|--
B|--2--2--2--3--3--3--2--2--2--|--0--0--------0--0--2--2--|--
G|--2--2--2--2--2--2--2--2--2--|--1--1--4--4--0--0--2--2--|--
D|--2--2--2--0--0--0--2--2--2--|--2--2--4--4--0--0--2--2--|--
A|--0--0--0-----------0--0--0--|--2--2--2--2--2--2--0--0--|--
E|-----------------------------|--0--0--------3--3--------|--

							http://www.guitartabcreator.com
Chords

Instruments
{"strings":[[[0,0,0,0,"_",2,2,2,"_",2,2,"_",0,0,0,0,0,0,0,0,0,0,0,"|"],[0,0,0,0,"_",0,0,0,"_",0,0,"_",2,2,2,0,2,0,2,0,2,0,2,"|"],[1,1,1,1,"_",2,2,2,"_",2,2,"_",2,2,2,0,2,0,2,0,2,0,2,"|"],[2,2,2,2,"_",1,1,1,"_",1,1,"_",2,2,2,0,2,0,2,0,2,0,2,"|"],[2,2,2,2,"_",2,2,2,"_",2,2,"_",0,0,0,0,0,0,0,0,0,0,0,"|"],[0,0,0,0,"_",".",".",".","_",".",".","_",".",".",".",".",".",".",".",".",".",".",".","|"]],[[0,0,0,0,"_",2,2,2,2,2,"_",0,0,0,0,0,"_",0,0,0,0,0,"|"],[0,0,0,0,"_",0,0,0,0,0,"_",2,2,2,2,2,"_",0,0,0,0,0,"|"],[1,1,1,1,"_",2,2,2,2,2,"_",2,2,2,2,2,"_",1,1,1,1,1,"|"],[2,2,2,2,"_",1,1,1,1,1,"_",2,2,2,2,2,"_",2,2,2,2,2,"|"],[2,2,2,2,"_",2,2,2,2,2,"_",0,0,0,0,0,"_",2,2,2,2,2,"|"],[0,0,0,0,"_",".",".",".",".",".","_",".",".",".",".",".","_",0,0,0,0,0,"|"]],[[0,"|",0,"|",2,"|","|",0,0,0,2,2,2,0,0,0,2,2,2,0,0,0,2,2,2,"|"],[2,"|",2,"|",3,"|","|",2,2,2,3,3,3,2,2,2,3,3,3,2,2,2,3,3,3,"|"],[2,"|",0,"|",2,"|","|",2,2,2,2,2,2,2,2,2,2,2,2,2,2,2,2,2,2,"|"],[2,"|",2,"|",0,"|","|",2,2,2,0,0,0,2,2,2,0,0,0,2,2,2,0,0,0,"|"],[0,"|",0,"|",".","|","|",0,0,0,".",".",".",0,0,0,".",".",".",0,0,0,".",".",".","|"],[".","|",".","|",".","|","|",".",".",".",".",".",".",".",".",".",".",".",".",".",".",".",".",".",".","|"]],[[0,0,0,2,2,2,0,0,0,"|",0,0,".",".",3,3,0,0,"|"],[2,2,2,3,3,3,2,2,2,"|",0,0,".",".",0,0,2,2,"|"],[2,2,2,2,2,2,2,2,2,"|",1,1,4,4,0,0,2,2,"|"],[2,2,2,0,0,0,2,2,2,"|",2,2,4,4,0,0,2,2,"|"],[0,0,0,".",".",".",0,0,0,"|",2,2,2,2,2,2,0,0,"|"],[".",".",".",".",".",".",".",".",".","|",0,0,".",".",3,3,".",".","|"]]],"numberofstrings":6,"notes":["E","B","G","D","A","E","B"],"capo":0,"stringnotes":["E4","B3","G3","D3","A2","E2"],"comments":["Intro:","Verse progression: 2x","strum A chord 8x, A7 chord 8x, then play D chord once and rest for 3 beats:","Pre-chorus and chorus:"],"timing":[["W","W","W","W",null,"W","W","W","W","W","W","W","W","W","W","W","W","W","W","W","W","W","W"],["W","W","W","W",null,"W","W","W","W","W",null,"W","W","W","W","W",null,"W","W","W","W","W"],["W",null,"W","W","W",null,null,"W","W","W","W","W","W","W","W","W","W","W","W","W","W","W","W","W","W"],["W","W","W","W","W","W","W","W","W","W","W","W","W","W","W","W","W","W"]],"timingvisible":false,"tabcounter":19,"stave":3,"totalstaves":4,"instrument":"6guitar","selectedtuning":"6_standard","version":"13"}

Member for

8 months 2 weeks
Submitted by quarkansas on Fri, 2020-12-04 12:56