Calpurnia tunes 1

Chords

01234567891011121314151617181920212223
E
B
G
D
A
E
B
0 1 2 3 4 5 6 7 8 9 10 11 12 13 14 15 16 17 18 19 20 21 22 23
(/) Slide Up  (\) Slide Down  (h) Hammer On  (p) Pull Off  (b) Bend (r) Release (v) Vibrato

Greyhound chords:

E|--0--|--0--|--0--|--0--|--|-----0--|--
B|--0--|--0--|--0--|--0--|--|-----2--|--
G|--1--|--5--|--6--|--1--|--|-----2--|--
D|--2--|--6--|--7--|--2--|--|--4--2--|--
A|--2--|--6--|--7--|--2--|--|--4--0--|--
E|--0--|--0--|--0--|--0--|--|--2-----|--

City Boy chords:

E|--0--2--0--|--0--0--|--|--2--0--|--
B|--0--0--2--|--2--2--|--|--3--2--|--
G|--1--2--2--|--2--0--|--|--2--2--|--
D|--2--1--2--|--2--2--|--|--0--2--|--
A|--2--2--0--|--0--0--|--|-----0--|--
E|--0--------|--------|--|--------|--

Stave 3:

E|--0--2--3--0--|--
B|--0--0--0--2--|--
G|--1--2--0--2--|--
D|--2--1--0--2--|--
A|--2--2--2--0--|--
E|--0-----3-----|--

							http://www.guitartabcreator.com
Instruments
{"strings":[[[0,"|",0,"|",0,"|",0,"|","|",".",0,"|"],[0,"|",0,"|",0,"|",0,"|","|",".",2,"|"],[1,"|",5,"|",6,"|",1,"|","|",".",2,"|"],[2,"|",6,"|",7,"|",2,"|","|",4,2,"|"],[2,"|",6,"|",7,"|",2,"|","|",4,0,"|"],[0,"|",0,"|",0,"|",0,"|","|",2,".","|"]],[[0,2,0,"|",0,0,"|","|",2,0,"|"],[0,0,2,"|",2,2,"|","|",3,2,"|"],[1,2,2,"|",2,0,"|","|",2,2,"|"],[2,1,2,"|",2,2,"|","|",0,2,"|"],[2,2,0,"|",0,0,"|","|",".",0,"|"],[0,".",".","|",".",".","|","|",".",".","|"]],[[0,2,3,0,"|"],[0,0,0,2,"|"],[1,2,0,2,"|"],[2,1,0,2,"|"],[2,2,2,0,"|"],[0,".",3,".","|"]]],"numberofstrings":6,"notes":["E","B","G","D","A","E","B"],"capo":0,"stringnotes":["E4","B3","G3","D3","A2","E2"],"comments":["Greyhound chords:","City Boy chords:","Stave 3:","Stave 4:"],"timing":[["W",null,"W","W","W",null,"W","W","W","W","W"],["W","W","W",null,"W","W","W","W","W","W"],["W","W","W","W"],[]],"timingvisible":false,"tabcounter":12,"stave":0,"totalstaves":3,"instrument":"6guitar","selectedtuning":"6_standard","version":"13"}

Member for

7 months
Submitted by quarkansas on Fri, 2020-10-30 12:37