Boulevard of Broken Dreams Solo

01234567891011121314151617181920212223
E
B
G
D
A
E
B
0 1 2 3 4 5 6 7 8 9 10 11 12 13 14 15 16 17 18 19 20 21 22 23
(/) Slide Up  (\) Slide Down  (h) Hammer On  (p) Pull Off  (b) Bend (r) Release (v) Vibrato



E|--0--2--3-----7--5-----2--3--|--0--2--3-----7--5--2--3--|--
B|-----------3-----------------|-----------3--------------|--
G|-----------------------------|--------------------------|--
D|-----------------------------|--------------------------|--
A|-----------------------------|--------------------------|--
E|-----------------------------|--------------------------|--



E|--0--2--3-----7--5-----2--3--|--0--2--3-----7--5--7--7--7--7--|--
B|-----------3-----------------|-----------3--------------------|--
G|-----------------------------|--------------------------------|--
D|-----------------------------|--------------------------------|--
A|-----------------------------|--------------------------------|--
E|-----------------------------|--------------------------------|--

							http://www.guitartabcreator.com
Chords

Instruments
{"strings":[[[0,2,3,".",7,5,"_",2,3,"|",0,2,3,".",7,5,2,3,"|"],[".",".",".",3,".",".","_",".",".","|",".",".",".",3,".",".",".",".","|"],[".",".",".",".",".",".","_",".",".","|",".",".",".",".",".",".",".",".","|"],[".",".",".",".",".",".","_",".",".","|",".",".",".",".",".",".",".",".","|"],[".",".",".",".",".",".","_",".",".","|",".",".",".",".",".",".",".",".","|"],[".",".",".",".",".",".","_",".",".","|",".",".",".",".",".",".",".",".","|"]],[[0,2,3,".",7,5,"_",2,3,"|",0,2,3,".",7,5,7,7,7,7,"|"],[".",".",".",3,".",".","_",".",".","|",".",".",".",3,".",".",".",".",".",".","|"],[".",".",".",".",".",".","_",".",".","|",".",".",".",".",".",".",".",".",".",".","|"],[".",".",".",".",".",".","_",".",".","|",".",".",".",".",".",".",".",".",".",".","|"],[".",".",".",".",".",".","_",".",".","|",".",".",".",".",".",".",".",".",".",".","|"],[".",".",".",".",".",".","_",".",".","|",".",".",".",".",".",".",".",".",".",".","|"]]],"numberofstrings":6,"notes":["E","B","G","D","A","E","B"],"capo":0,"stringnotes":["E4","B3","G3","D3","A2","E2"],"comments":["",""],"timing":[["W","W","W","W","W","W",null,"W","W",null,"W","W","W","W","W","W","W","W"],["W","W","W","W","W","W",null,"W","W",null,"W","W","W","W","W","W","W","W","W","W"]],"timingvisible":false,"tabcounter":21,"stave":1,"totalstaves":2,"instrument":"6guitar","selectedtuning":"6_standard","version":"13"}

Member for

1 year 8 months
Submitted by quarkansas on Fri, 2020-10-02 17:52