Blues Licks 1 (E blues)

01234567891011121314151617181920212223
E
B
G
D
A
E
B
0 1 2 3 4 5 6 7 8 9 10 11 12 13 14 15 16 17 18 19 20 21 22 23
(/) Slide Up  (\) Slide Down  (h) Hammer On  (p) Pull Off  (b) Bend (r) Release (v) Vibrato

E blues vamp//solo licks over E vamp

E|-----0-----0-----|--|--17b15------|--15--12--15--12--15--12--|-----7-----7-----0--|--
B|--------3--------|--|---------17--|--------------------------|--8-----8-----8-----|--
G|-----------------|--|-------------|--------------------------|--------------------|--
D|-----------------|--|-------------|--------------------------|--------------------|--
A|--2--------------|--|-------------|--------------------------|--------------------|--
E|--0-----------3--|--|-------------|--------------------------|--------------------|--

solo licks over A vamp

E|--12------12------12------|--12--14b14--12------12--|------------------------------|--
B|------15------15------15--|-----------------15------|--15--15--15--15--15--15--15--|--
G|--------------------------|-------------------------|--16--16--16--16--16--16--16--|--
D|--------------------------|-------------------------|------------------------------|--
A|--------------------------|-------------------------|------------------------------|--
E|--------------------------|-------------------------|------------------------------|--

turnaround lick 1:

E|---------------------------------------------------------------------------------------|--
B|---------------------------------------------------------------------------------------|--
G|------12--14b14--12------12------12----------------------------------------------------|--
D|--14-----------------14------14------14-----14--12--14b14--12--------------------------|--
A|---------------------------------------------------------------14--10--12--10----------|--
E|-------------------------------------------------------------------------------12--10--|--

turnaround lick 2:

E|-----4--------3--------2-------------------|----------------------------------|--
B|-------------------------------------------|--3--3--3--2--2--2--1--1--1-------|--
G|--4-----4--3-----3--2-----2--0h1-----------|--4--4--4--3--3--3--2--2--2--0h1--|--
D|-------------------------------------------|----------------------------------|--
A|----------------------------------0--1--2--|----------------------------------|--
E|-------------------------------------------|----------------------------------|--

turnaround lick 3:

E|-----------------------------|--0--0--0--0--0--0--0--0--0--0--|--
B|-----------------------------|--5--5--3--3--2--2--1--1--0--0--|--
G|-----------------------------|--------------------------------|--
D|-----------------------------|--------------------------------|--
A|-----------------------------|--------------------------------|--
E|--0--0--4--4--5--5--6--6--7--|--------------------------------|--

							http://www.guitartabcreator.com
Chords

Instruments
{"strings":[[[".",0,".",0,".","|","|",17,"b",15,".","|",15,12,15,12,15,12,"|",".",7,".",7,".",0,"|"],[".",".",3,".",".","|","|",".",".",".",17,"|",".",".",".",".",".",".","|",8,".",8,".",8,".","|"],[".",".",".",".",".","|","|",".",".",".",".","|",".",".",".",".",".",".","|",".",".",".",".",".",".","|"],[".",".",".",".",".","|","|",".",".",".",".","|",".",".",".",".",".",".","|",".",".",".",".",".",".","|"],[2,".",".",".",".","|","|",".",".",".",".","|",".",".",".",".",".",".","|",".",".",".",".",".",".","|"],[0,".",".",".",3,"|","|",".",".",".",".","|",".",".",".",".",".",".","|",".",".",".",".",".",".","|"]],[[12,".",12,".",12,".","|",12,14,"b",14,12,".",12,"|",".",".",".",".",".",".",".","|"],[".",15,".",15,".",15,"|",".",".",".",".",".",15,".","|",15,15,15,15,15,15,15,"|"],[".",".",".",".",".",".","|",".",".",".",".",".",".",".","|",16,16,16,16,16,16,16,"|"],[".",".",".",".",".",".","|",".",".",".",".",".",".",".","|",".",".",".",".",".",".",".","|"],[".",".",".",".",".",".","|",".",".",".",".",".",".",".","|",".",".",".",".",".",".",".","|"],[".",".",".",".",".",".","|",".",".",".",".",".",".",".","|",".",".",".",".",".",".",".","|"]],[[".",".",".",".",".",".",".",".",".",".",".","_",".",".",".",".",".",".",".",".",".",".",".",".","|"],[".",".",".",".",".",".",".",".",".",".",".","_",".",".",".",".",".",".",".",".",".",".",".",".","|"],[".",12,14,"b",14,12,".",12,".",12,".","_",".",".",".",".",".",".",".",".",".",".",".",".","|"],[14,".",".",".",".",".",14,".",14,".",14,"_",14,12,14,"b",14,12,".",".",".",".",".",".","|"],[".",".",".",".",".",".",".",".",".",".",".","_",".",".",".",".",".",".",14,10,12,10,".",".","|"],[".",".",".",".",".",".",".",".",".",".",".","_",".",".",".",".",".",".",".",".",".",".",12,10,"|"]],[[".",4,".",".",3,".",".",2,".",".",".",".",".",".",".","|",".",".",".",".",".",".",".",".",".",".",".",".","|"],[".",".",".",".",".",".",".",".",".",".",".",".",".",".",".","|",3,3,3,2,2,2,1,1,1,".",".",".","|"],[4,".",4,3,".",3,2,".",2,0,"h",1,".",".",".","|",4,4,4,3,3,3,2,2,2,0,"h",1,"|"],[".",".",".",".",".",".",".",".",".",".",".",".",".",".",".","|",".",".",".",".",".",".",".",".",".",".",".",".","|"],[".",".",".",".",".",".",".",".",".",".",".",".",0,1,2,"|",".",".",".",".",".",".",".",".",".",".",".",".","|"],[".",".",".",".",".",".",".",".",".",".",".",".",".",".",".","|",".",".",".",".",".",".",".",".",".",".",".",".","|"]],[[".",".",".",".",".",".",".",".",".","|",0,0,0,0,0,0,0,0,0,0,"|"],[".",".",".",".",".",".",".",".",".","|",5,5,3,3,2,2,1,1,0,0,"|"],[".",".",".",".",".",".",".",".",".","|",".",".",".",".",".",".",".",".",".",".","|"],[".",".",".",".",".",".",".",".",".","|",".",".",".",".",".",".",".",".",".",".","|"],[".",".",".",".",".",".",".",".",".","|",".",".",".",".",".",".",".",".",".",".","|"],[0,0,4,4,5,5,6,6,7,"|",".",".",".",".",".",".",".",".",".",".","|"]]],"numberofstrings":6,"notes":["E","B","G","D","A","E","B"],"capo":0,"stringnotes":["E4","B3","G3","D3","A2","E2"],"comments":["E blues vamp//solo licks over E vamp","solo licks over A vamp","turnaround lick 1:","turnaround lick 2:","turnaround lick 3:"],"timing":[["W","W","W","W","W","W",null,"W",null,"W","W","W","W","W","W","W","W","W",null,"W","W","W","W","W","W"],["W","W","W","W","W","W","W","W","W","W","W","W","W","W","W","W","W","W","W","W","W","W","W","W","W"],["W","W","W",null,"W","W","W","W","W","W","W",null,"W","W","W",null,"W","W","W","W","W","W","W","W"],["W","W","W","W","W","W","W","W","W","W",null,"W","W","W","W",null,"W","W","W","W","W","W","W","W","W","W",null,"W"],["W","W","W","W","W","W","W","W","W",null,"W","W","W","W","W","W","W","W","W","W","W"]],"timingvisible":false,"tabcounter":21,"stave":4,"totalstaves":5,"instrument":"6guitar","selectedtuning":"6_standard","version":"13"}

Member for

11 months 2 weeks
Submitted by quarkansas on Fri, 2020-11-27 13:12