blinding lights V/C

01234567891011121314151617181920212223
E
B
G
D
A
E
B
0 1 2 3 4 5 6 7 8 9 10 11 12 13 14 15 16 17 18 19 20 21 22 23
(/) Slide Up  (\) Slide Down  (h) Hammer On  (p) Pull Off  (b) Bend (r) Release (v) Vibrato

"I been trying to call..."

E|--2--0--2--0--2-----2--0--2--0--4-----0--2--------2--0--2--0--4-----0--2-----
A|-----------------------------------4--------4--------------------4--------4--
D|-----------------------------------------------------------------------------
G|-----------------------------------------------------------------------------

"Sin city's cold and empty..."

E|--0--2-----|--0-----------0--2--4-----0--2--------0--2--4-----0--2--
A|--------6--|-----6--4--4-----------4-----------4-----------4--------
D|-----------|--------------------------------------------------------
G|-----------|--------------------------------------------------------

 CHORUS ->

E|-----0--2--4-----0--2-----------|--2--0--2-----4--2--0--0-----0-----
A|--4-----------4--------6--4--2--|--------------------------4--------
D|--------------------------------|-----------------------------------
G|--------------------------------|-----------------------------------

BRIDGE ->

E|--7--4--2--0--7--4--2--0--2--|--|--7--4--7--4--9--4--4--2--4-----
A|-----------------------------|--|--------------------------------
D|-----------------------------|--|--------------------------------
G|-----------------------------|--|--------------------------------



E|--7--4--7--4--9--4--4--2--4-----7--4--7--4--9--4--4--2--4--7--7--5--4--2--|--
A|--------------------------------------------------------------------------|--
D|--------------------------------------------------------------------------|--
G|--------------------------------------------------------------------------|--

							http://www.guitartabcreator.com
Chords

Instruments
{"strings":[[[2,0,2,0,2,"_",2,0,2,0,4,".",0,2,".","_",2,0,2,0,4,".",0,2,"."],[".",".",".",".",".","_",".",".",".",".",".",4,".",".",4,"_",".",".",".",".",".",4,".",".",4],[".",".",".",".",".","_",".",".",".",".",".",".",".",".",".","_",".",".",".",".",".",".",".",".","."],[".",".",".",".",".","_",".",".",".",".",".",".",".",".",".","_",".",".",".",".",".",".",".",".","."]],[[0,2,".","|",0,".",".",".",0,2,4,".",0,2,"_",".",0,2,4,".",0,2],[".",".",6,"|",".",6,4,4,".",".",".",4,".",".","_",4,".",".",".",4,".","."],[".",".",".","|",".",".",".",".",".",".",".",".",".",".","_",".",".",".",".",".",".","."],[".",".",".","|",".",".",".",".",".",".",".",".",".",".","_",".",".",".",".",".",".","."]],[[".",0,2,4,".",0,2,".",".",".","|",2,0,2,"_",4,2,0,0,".",0,"_"],[4,".",".",".",4,".",".",6,4,2,"|",".",".",".","_",".",".",".",".",4,".","_"],[".",".",".",".",".",".",".",".",".",".","|",".",".",".","_",".",".",".",".",".",".","_"],[".",".",".",".",".",".",".",".",".",".","|",".",".",".","_",".",".",".",".",".",".","_"]],[[7,4,2,0,7,4,2,0,2,"|","|",7,4,7,4,9,4,4,2,4,"_"],[".",".",".",".",".",".",".",".",".","|","|",".",".",".",".",".",".",".",".",".","_"],[".",".",".",".",".",".",".",".",".","|","|",".",".",".",".",".",".",".",".",".","_"],[".",".",".",".",".",".",".",".",".","|","|",".",".",".",".",".",".",".",".",".","_"]],[[7,4,7,4,9,4,4,2,4,"_",7,4,7,4,9,4,4,2,4,7,7,5,4,2,"|"],[".",".",".",".",".",".",".",".",".","_",".",".",".",".",".",".",".",".",".",".",".",".",".",".","|"],[".",".",".",".",".",".",".",".",".","_",".",".",".",".",".",".",".",".",".",".",".",".",".",".","|"],[".",".",".",".",".",".",".",".",".","_",".",".",".",".",".",".",".",".",".",".",".",".",".",".","|"]]],"numberofstrings":4,"notes":["E","A","D","G"],"capo":0,"stringnotes":["E4","A4","D4","G3"],"comments":["\"I been trying to call...\"","\"Sin city's cold and empty...\""," CHORUS ->","BRIDGE ->",""],"timing":[["W","W","W","W","W",null,"W","W","W","W","W","W","W","W","W",null,"W","W","W","W","W","W","W","W","W"],["W","W","W",null,"W","W","W","W","W","W","W","W","W","W",null,"W","W","W","W","W","W","W"],["W","W","W","W","W","W","W","W","W","W",null,"W","W","W",null,"W","W","W","W","W","W"],["W","W","W","W","W","W","W","W","W",null,null,"W","W","W","W","W","W","W","W","W"],["W","W","W","W","W","W","W","W","W",null,"W","W","W","W","W","W","W","W","W","W","W","W","W","W"]],"timingvisible":false,"tabcounter":25,"stave":4,"totalstaves":5,"instrument":"mandolin","selectedtuning":"mandolin","version":"13"}

Member for

10 months 1 week
Submitted by quarkansas on Fri, 2021-01-15 12:56