Bass Melodic Exercises 1

Chords

01234567891011121314151617181920212223
E
B
G
D
A
E
B
0 1 2 3 4 5 6 7 8 9 10 11 12 13 14 15 16 17 18 19 20 21 22 23
(/) Slide Up  (\) Slide Down  (h) Hammer On  (p) Pull Off  (b) Bend (r) Release (v) Vibrato

G Major Scale and Arpeggio (Open Position) 

G|-----------------------0--|--0-----------------------|-----------0-----------|--
D|--------------0--2--4-----|-----4--2--0--------------|--------0-----0--------|--
A|-----0--2--3--------------|--------------3--2--0-----|-----2-----------2-----|--
E|--3-----------------------|-----------------------3--|--3-----------------3--|--

G Major Scale and Arpeggio (Closed Position) 

G|--------------------------|--------------------------|-----------------------|--
D|-----------------2--4--5--|--5--4--2-----------------|-----------5-----------|--
A|--------2--3--5-----------|-----------5--3--2--------|-----2--5-----5--2-----|--
E|--3--5--------------------|--------------------5--3--|--3-----------------3--|--

"Ode to Joy" 

G|-----------------------------------------------|--
D|-----------0--0--------------------------------|--
A|--2--2--3--------3--2--0--------0--2--2--0--0--|--
E|--------------------------3--3-----------------|--



G|-----------------------------------------------|--
D|-----------0--0--------------------------------|--
A|--2--2--3--------3--2--0--------0--2--0--------|--
E|--------------------------3--3-----------3--3--|--

							http://www.guitartabcreator.com
Instruments
{"strings":[[[".",".",".",".",".",".",".",0,"|",0,".",".",".",".",".",".",".","|",".",".",".",0,".",".",".","|"],[".",".",".",".",0,2,4,".","|",".",4,2,0,".",".",".",".","|",".",".",0,".",0,".",".","|"],[".",0,2,3,".",".",".",".","|",".",".",".",".",3,2,0,".","|",".",2,".",".",".",2,".","|"],[3,".",".",".",".",".",".",".","|",".",".",".",".",".",".",".",3,"|",3,".",".",".",".",".",3,"|"]],[[".",".",".",".",".",".",".",".","|",".",".",".",".",".",".",".",".","|",".",".",".",".",".",".",".","|"],[".",".",".",".",".",2,4,5,"|",5,4,2,".",".",".",".",".","|",".",".",".",5,".",".",".","|"],[".",".",2,3,5,".",".",".","|",".",".",".",5,3,2,".",".","|",".",2,5,".",5,2,".","|"],[3,5,".",".",".",".",".",".","|",".",".",".",".",".",".",5,3,"|",3,".",".",".",".",".",3,"|"]],[[".",".",".",".",".",".",".",".",".",".",".",".",".",".",".","|"],[".",".",".",0,0,".",".",".",".",".",".",".",".",".",".","|"],[2,2,3,".",".",3,2,0,".",".",0,2,2,0,0,"|"],[".",".",".",".",".",".",".",".",3,3,".",".",".",".",".","|"]],[[".",".",".",".",".",".",".",".",".",".",".",".",".",".",".","|"],[".",".",".",0,0,".",".",".",".",".",".",".",".",".",".","|"],[2,2,3,".",".",3,2,0,".",".",0,2,0,".",".","|"],[".",".",".",".",".",".",".",".",3,3,".",".",".",3,3,"|"]]],"numberofstrings":4,"notes":["G","D","A","E"],"capo":0,"stringnotes":["G2","D2","A1","E1"],"comments":["G Major Scale and Arpeggio (Open Position) ","G Major Scale and Arpeggio (Closed Position) ","\"Ode to Joy\" ",""],"timing":[["W","W","W","W","W","W","W","W",null,"W","W","W","W","W","W","W","W",null,"W","W","W","W","W","W","W"],["W","W","W","W","W","W","W","W",null,"W","W","W","W","W","W","W","W",null,"W","W","W","W","W","W","W"],["W","W","W","W","W","W","W","W","W","W","W","W","W","W","W","W","W","W","W","W","W","W","W","W","W","W","W","W"],["W","W","W","W","W","W","W","W","W","W","W","W","W","W","W"]],"timingvisible":false,"tabcounter":16,"stave":3,"totalstaves":4,"instrument":"4bass","selectedtuning":"4bass","version":"13"}

Member for

2 months 1 week
Submitted by quarkansas on Tue, 2020-05-26 14:33