bad/all day/blitzkrieg

Chords

01234567891011121314151617181920212223
E
B
G
D
A
E
B
0 1 2 3 4 5 6 7 8 9 10 11 12 13 14 15 16 17 18 19 20 21 22 23
(/) Slide Up  (\) Slide Down  (h) Hammer On  (p) Pull Off  (b) Bend (r) Release (v) Vibrato

Bad by Michael Jackson:

E|-----------------------------------|--
B|-----------------------------------|--
G|-----------------------------------|--
D|-----------------------------------|--
A|--0--3--5--6--7-----0--3--5--6--7--|--
E|-----------------------------------|--

All Day and All of the Night by The Kinks:

E|--------------------------|--|--------------------------------------------------|--
B|--------------------------|--|--------------------------------------------------|--
G|--------------------------|--|--------------------------------------------------|--
D|--------------------------|--|--------------------------------------------------|--
A|-----------------1--1-----|--|--------------------------------------3--3--------|--
E|--3--3--1-----1--------3--|--|--6--6--6--6--1--1--1--1--5--5--3--3--------5--5--|--

All Day... CHORUS:

E|--------------------------------|--
B|--------------------------------|--
G|--------------------------------|--
D|--------------------------------|--
A|----------------------8--8------|--
E|--10-----10--8-----8--------10--|--

Blitzkrieg Bop by The Ramones:

E|--------------------------------|--------------------------------|--
B|--------------------------------|--------------------------------|--
G|--------------------------------|--------------------------------|--
D|--------------------------------|--------------------------------|--
A|--------------------------5--7--|--------------------------5--7--|--
E|--5--5--5--5--5--5--5--5--------|--5--5--5--5--5--5--5--5--------|--



E|--------------------------------|-----------------------------|--
B|--------------------------------|-----------------------------|--
G|--------------------------------|-----------------------------|--
D|--------------------------------|-----------------------------|--
A|--------------------------5--7--|--------------5--5--5--5-----|--
E|--5--5--5--5--5--5--5--5--------|--5--5--5--5--------------5--|--

							http://www.guitartabcreator.com
Instruments
{"strings":[[[".",".",".",".",".","_",".",".",".",".",".","|"],[".",".",".",".",".","_",".",".",".",".",".","|"],[".",".",".",".",".","_",".",".",".",".",".","|"],[".",".",".",".",".","_",".",".",".",".",".","|"],[0,3,5,6,7,"_",0,3,5,6,7,"|"],[".",".",".",".",".","_",".",".",".",".",".","|"]],[[".",".",".","_",".",".",".",".","|","|",".",".",".",".",".",".",".",".",".",".",".",".",".",".",".",".","|"],[".",".",".","_",".",".",".",".","|","|",".",".",".",".",".",".",".",".",".",".",".",".",".",".",".",".","|"],[".",".",".","_",".",".",".",".","|","|",".",".",".",".",".",".",".",".",".",".",".",".",".",".",".",".","|"],[".",".",".","_",".",".",".",".","|","|",".",".",".",".",".",".",".",".",".",".",".",".",".",".",".",".","|"],[".",".",".","_",".",1,1,".","|","|",".",".",".",".",".",".",".",".",".",".",".",".",3,3,".",".","|"],[3,3,1,"_",1,".",".",3,"|","|",6,6,6,6,1,1,1,1,5,5,3,3,".",".",5,5,"|"]],[[".","_",".",".","_",".",".",".",".","|"],[".","_",".",".","_",".",".",".",".","|"],[".","_",".",".","_",".",".",".",".","|"],[".","_",".",".","_",".",".",".",".","|"],[".","_",".",".","_",".",8,8,".","|"],[10,"_",10,8,"_",8,".",".",10,"|"]],[[".",".",".",".",".",".",".",".",".",".","|",".",".",".",".",".",".",".",".",".",".","|"],[".",".",".",".",".",".",".",".",".",".","|",".",".",".",".",".",".",".",".",".",".","|"],[".",".",".",".",".",".",".",".",".",".","|",".",".",".",".",".",".",".",".",".",".","|"],[".",".",".",".",".",".",".",".",".",".","|",".",".",".",".",".",".",".",".",".",".","|"],[".",".",".",".",".",".",".",".",5,7,"|",".",".",".",".",".",".",".",".",5,7,"|"],[5,5,5,5,5,5,5,5,".",".","|",5,5,5,5,5,5,5,5,".",".","|"]],[[".",".",".",".",".",".",".",".",".",".","|",".",".",".",".",".",".",".",".",".","|"],[".",".",".",".",".",".",".",".",".",".","|",".",".",".",".",".",".",".",".",".","|"],[".",".",".",".",".",".",".",".",".",".","|",".",".",".",".",".",".",".",".",".","|"],[".",".",".",".",".",".",".",".",".",".","|",".",".",".",".",".",".",".",".",".","|"],[".",".",".",".",".",".",".",".",5,7,"|",".",".",".",".",5,5,5,5,".","|"],[5,5,5,5,5,5,5,5,".",".","|",5,5,5,5,".",".",".",".",5,"|"]]],"numberofstrings":6,"notes":["E","B","G","D","A","E","B"],"capo":0,"stringnotes":["E4","B3","G3","D3","A2","E2"],"comments":["Bad by Michael Jackson:","All Day and All of the Night by The Kinks:","All Day... CHORUS:","Blitzkrieg Bop by The Ramones:",""],"timing":[["W","W","W","W","W","W","W","W","W","W","W"],["W","W","W",null,"W","W","W","W",null,null,"W","W","W","W","W","W","W","W","W","W","W","W","W","W","W","W"],["W","W","W","W",null,"W","W","W","W"],["W","W","W","W","W","W","W","W","W","W",null,"W","W","W","W","W","W","W","W","W","W"],["W","W","W","W","W","W","W","W","W","W",null,"W","W","W","W","W","W","W","W","W"]],"timingvisible":false,"tabcounter":21,"stave":4,"totalstaves":5,"instrument":"6guitar","selectedtuning":"6_standard","version":"13"}

Member for

2 months 1 week
Submitted by quarkansas on Tue, 2020-06-30 14:36