Sound will begin in 5 seconds

Gods

Chords
01234567891011121314151617181920212223
E
B
G
D
A
E
B
0 1 2 3 4 5 6 7 8 9 10 11 12 13 14 15 16 17 18 19 20 21 22 23
Song Science #1: How Pros Use 6 Chords to Write Hit Songs
(/) Slide Up  (\) Slide Down  (h) Hammer On  (p) Pull Off  (b) Bend (r) Release (v) Vibrato

Stave 1:

E|----------------------|----------------------|----------------------|-----------------------|--
B|-----------7----------|-----------7----------|-----------7----------|-----------------------|--
G|-----6--------6-------|-----6--------6-------|-----6--------6-------|-----4-----6-----4-----|--
D|--------6--------6/9--|--------6--------6/2--|--------6--------6/7--|--------4-----6-----2--|--
A|--4-------------------|--4-------------------|--4-------------------|--4--------------------|--
E|----------------------|----------------------|----------------------|-----------------------|--

Stave 2:

E|-------------------------------------------------------|----------------------------------------------
B|--------5--4h5p4-----5--4h5p4-----4--5--4--------------|--------5--4h5p4-----5--4h5p4-----4--5--4-----
G|------------------4------------4-----------4--6--------|------------------4------------4-----------4--
D|-------------------------------------------------6--7--|----------------------------------------------
A|-------------------------------------------------------|----------------------------------------------
E|--0--0-------------------------------------------------|--0--0----------------------------------------

Stave 3:

E|-----|-----------------------------------------------------|-----------------------------------------
B|--8--|-----------------------------------------------------|-----------------------------------------
G|--7--|--6--6--6--6--6--6-----6-----------------------------|--6--6--6--6--6--6--6--1--4--4-----------
D|-----|--6--6--6--6--6--6-----6-----------6-----------9-----|--6--6--6--6--6--6--6--1--4--4-----------
A|-----|--4--4--4--4--4--4-----4--------4-----4-----7-----7--|--4--4--4--4--4--4--4--0--2--2-----------
E|-----|--------------------------0--2-----------5-----------|--------------------------------0--0--2--

Stave 4:

E|---------|-------------------------------------------------------|--
B|---------|-------------------------------------------------------|--
G|---------|--6--6--6--6--6--6--6----------------------------------|--
D|---------|--6--6--6--6--6--6--6-----------6----------9-------11--|--
A|---------|--4--4--4--4--4--4--4--------4-----4-------------------|--
E|--2b3b2--|-----------------------0--2-----------2\5-----5\7------|--

Stave 5:

E|--------------------------------------|--
B|--------------------------------------|--
G|--6--6--6--6--6--6-----6--6--4--4--2--|--
D|--6--6--6--6--6--6-----6--6--4--4--2--|--
A|--4--4--4--4--4--4-----4--4--2--2-----|--
E|--------------------------------------|--

Stave 6:

E|----------------------------------------------|----------------------------------------|--
B|-----5----------------------5-----------------|-----5----------------------5-----------|--
G|--------5--------5-------------7--------7-----|--------5--------5-------------7--------|--
D|--3--------3--3-----3--3\5--------5--5-----5--|--3--------3--3-----3--3\5--------5--5--|--
A|----------------------------------------------|----------------------------------------|--
E|----------------------------------------------|----------------------------------------|--

Stave 7:

E|----------------------------------------------|--------------------------|--
B|-----5-----------5----------5-----------------|-----5--------------------|--
G|--------5----------------------7--------7-----|--------5--------5--------|--
D|--3--------3--3-----3--3\5--------5--5-----5--|--3--------3--3-----3--3--|--
A|----------------------------------------------|--------------------------|--
E|----------------------------------------------|--------------------------|--

Stave 8:

E|-----------------------------------------------------------------------
B|-----------------------3-----------------------------------------------
G|-----------------------2--2--2--9--9--------------------2--2-----4--4--
D|--4--4--4--4--4--4--4--0--2--2--9--9--4--4--4--4--4--4--2--2--9--4--4--
A|--2--2--2--2--2--2--2--0--0--0--7--7--2--2--2--2--2--2--0--0--9--2--2--
E|--------------------------------------------------------------7--------

http://www.guitartabcreator.com
Guitar Tab Creator is intended to store guitar tab created through the tool. It currently does not support in-line text editing. Any text you place in here will be lost. If you need to comment on your tab, please use the "Tab Notes" section located below.