Sound will begin in 5 seconds

TROUVE MOI

Chords
01234567891011121314151617181920212223
E
B
G
D
A
E
B
0 1 2 3 4 5 6 7 8 9 10 11 12 13 14 15 16 17 18 19 20 21 22 23
(/) Slide Up  (\) Slide Down  (h) Hammer On  (p) Pull Off  (b) Bend (r) Release (v) Vibrato

Verse 1 pt. 1

E|-10----------------------------------------------|----9-----9--
B|-12----------------------------------------------|----10----10-
G|-11----------11-------11b12b11----------11-------|----9-----9--
D|-12----12-------12----------------12-------12-12-|----11----11-
A|-10-10----10-------10----------10----10----------|----9-----9--
D|-------------------------------------------------|-------------

Verse 1 pt. 2

E|-7----|---------7--------------------|----5-|----------------------------------------|-
B|-8----|-------8---8----------7-8-7---|----7-|----------------------------------------|-
G|-7----|-----7--------------7-------7-|----6-|-----6-------6b7b6--------6-------6b7b6-|-
D|-9----|---9--------------9-----------|----7-|---7---7---7------------7---7---7-------|-
A|-7----|-7--------------7-------------|----5-|-5-------5------------5-------5---------|-
D|-------|------------------------------|------|----------------------------------------|-

Verse 1 pt. 3

E|-7-|--------------7-----------------------|-5-|-------------------
B|-8-|----------7-8------------8-8h10-8-7---|-7-|-------------------
G|-7-|--------7--------------7------------7-|-6-|-----6-------6b7b6-
D|-9-|------9--------------9----------------|-7-|---7---7---7-------
A|-7-|----7--------------7------------------|-5-|-5-------5---------
D|---|--------------------------------------|---|-------------------

Chorus

E|-10----5----|-10----5-|-
B|-12----7----|-12----7-|-
G|-11----6----|-11----6-|-
D|-12----7----|-12----7-|-
A|-10----5----|-10----5-|-
D|------------|---------|-

buildup (bars)

E|-7-5-7-9--
B|-8-7-8-10-
G|-7-6-7-9--
D|-9-7-9-11-
A|-7-5-7-9--
D|----------

Ending

E|-10----5-5-|-10----5------2-
B|-12----7-7-|-12----7------3-
G|-11----6-6-|-11----6------2-
D|-12----7-7-|-12----7------4-
A|-10----5-5-|-10----5----2-2-
D|-----------|----------------

http://www.guitartabcreator.com
Guitar Tab Creator is intended to store guitar tab created through the tool. It currently does not support in-line text editing. Any text you place in here will be lost. If you need to comment on your tab, please use the "Tab Notes" section located below.