Sound will begin in 5 seconds

things can happen

Chords
01234567891011121314151617181920212223
E
B
G
D
A
E
B
0 1 2 3 4 5 6 7 8 9 10 11 12 13 14 15 16 17 18 19 20 21 22 23
Song Science #1: How Pros Use 6 Chords to Write Hit Songs
(/) Slide Up  (\) Slide Down  (h) Hammer On  (p) Pull Off  (b) Bend (r) Release (v) Vibrato

Stave 1:

E|---------------------------------------------------------------------------------------------------------------
B|---------------------------------------------------------------------------------------------------------------
G|--------1------------------------------------------------------------------------------------------------------
D|-----------3--2--2h3p2h3p2--5--3--2--------------------5--------------------5-----5--3--2--2h3p2h3p2--5--3--2--
A|-----0-------------------------------3--0--0--0--0--0-----7--0--0--0--0--0-----7-------------------------------
E|---------------------------------------------------------------------------------------------------------------

Stave 2:

E|------------------------------------------------------------------------------------------------------------------
B|------------------------------------------------------------------------------------------------------------------
G|--------------------------------------------------------9-----9--9--9--9--9--9-----10-----10--10--10--10--10--10--
D|--7-----7--7--7--7--7--7-----5-----5--5--5--5--5--5---------------------------------------------------------------
A|--7-----7--7--7--7--7--7-----5-----5--5--5--5--5--5-----7-----7--7--7--7--7--7-----7------7---7---7---7---7---7---
E|------------------------------------------------------------------------------------------------------------------

Stave 3:

E|-----------------------------------------------------------------------------------------------------------------------------------
B|-----------------------------------------------------------------------------------------------------------------------------------
G|--9-----9--9--9--9--9--9----------------------------------9-----9--9--9--9--9--9-----10-----10--10--10--10-------------------------
D|-----------------------------10-----10--10--10--10--9--7-------------------------------------------------------10--9--------10--7--
A|--7-----7--7--7--7--7--7-----7------7---7---7---7---7--7--7-----7--7--7--7--7--7-----7------7---7---7---7---7------------7---------
E|-----------------------------------------------------------------------------------------------------------------------------------

Stave 4:

E|---------------------------------------------------------------------------------------------------------------------
B|---------------------------------------------------------------------------------------------------------------------
G|-----------------------------------9-----7------------------9-----9--9--9--9--9--12--12--12--12--12--12--12--12--12--
D|--------------------------------------7-----7--10--7--9--7--7-----7--7--7--7--7--10--10--10--10--10--10--10--10--10--
A|---------------------------------------------------------------------------------------------------------------------
E|-----0--0--0--0--0--0--0--0--0--0------------------------------------------------------------------------------------

Stave 5:

E|----------------------------------------------------------------------------------------------------------------------------------------------------
B|----------------------------------------------------------------------------------------------------------------------------------------------------
G|--14----------14----------14----------14------14------14-----9-----9--9--9--9--9--12--12--12--12--12--12--12--12--12--------------------------4-----
D|--12--12--12------12--12------12--12------12------12---------7-----7--7--7--7--7--10--10--10--10--10--10--10--10--10--------------------------2-----
A|----------------------------------------------------------------------------------------------------------------------------------------------------
E|-------------------------------------------------------------------------------------------------------------------------0--0-----0--0-----0--------

Stave 6:

E|-----------------------------------------------------------------------------------------------
B|-----------------------------------------------------------------------------------------------
G|-----------------------------------------------------------------------------------------------
D|--3-----3--3--3--3--3--3--5-----5--5--5--5--5--5--------------------7--------------------------
A|--3-----3--3--3--3--3--3--5-----5--5--5--5--5--5--5--5--8--5--7--5--------5--5--8--5--7--5-----
E|--3-----3--3--3--3--3--3--5-----5--5--5--5--5--5--------------------------------------------8--

Stave 7:

E|--_---------------------------------------------------------------------------------------------------------------------
B|--_---------------------------------------------------------------------------------------------------------------------
G|--_---------------------------------------------------------------------------------------------------------------------
D|--11-----11--11--11--11--11--14-----14-----9-----9-----9h10--7-----------3-----3--3--3--3--3--5--5--5--5--5--5--5--5--5--
A|--9------9---9---9---9---9---12-----12-----7-----7-----7-----7-----------3-----3--3--3--3--3--5--5--5--5--5--5--5--5--5--
E|--_---------------------------------------------------------------------3-----3--3--3--3--3--5--5--5--5--5--5--5--5--5--

Stave 8:

E|--------------------------------------------------------------------------------------------------------------------------------
B|--------------------------------------------------------------------------------------------------------------------------------
G|--------------------------------------------------------------------------------------------------------------------------------
D|-----7-----7--7--7--7--7--5--5--5--5--5--5--5--5--5--3-----3--3--3--3--3--5--5--5--5--5--5--5--5--5--3--------5--3--2--0-----0--
A|-----5-----5--5--5--5--5--3--3--3--3--3--3--3--3--3--3-----3--3--3--3--3--5--5--5--5--5--5--5--5--5--3--------5--3--2--0-----0--
E|-----------------------------------------------------3-----3--3--3--3--3--5--5--5--5--5--5--5--5--5--3--------5--3--2--0-----0--

Stave 9:

E|-----------------------------------------------------------------------------------------------------------------
B|-----------------------------------------------------------------------------------------------------------------
G|-----------------------------------------------------------------------------------------------5-----5--5--5-----
D|-----7-----7--7--7--5--4-----4--4--4--4--4--4--4--2--------2--2--2--4-----4--4--4--4--4--4--4--5-----5--5--5-----
A|-----5-----5--5--5--3--2-----2--2--2--2--2--2--2--2--------2--2--2--2-----2--2--2--2--2--2--2--------------------
E|-----------------------------------------------------------------------------------------------------------------

Stave 10:

E|-----------------------------------------------------------------------------------------------------------------------------
B|-----------------------------------------------------------------------------------------------------------------------------
G|--4--2-----2--2--2--2--2--2--2--7-----7--7--7--5--4-----4--4--4--4--4--4--4--------------------------------------------------
D|--4--2-----2--2--2--2--2--2--2--7-----7--7--7--5--4-----4--4--4--4--4--4--4--------------------------------------------------
A|-----------------------------------------------------------------------------3-----------3-----3-----5-----------5-----5-----
E|-----------------------------------------------------------------------------3-----3--3--3--3--3--3--5-----5--5--5--5--5--5--

Stave 11:

E|-----------------------------------------------------------------------------------------------------------------
B|-----------------------------------------------------------------------------------------------------------------
G|-----------------------------------------------------------------------------------------------------------------
D|--5-----------5-----5-----4-----------4-----4-----------------------------------------------------7-----7--------
A|--3-----3--3--3--3--3--3--2-----2--2--2--2--2--2--3-----------3-----3-----5-----------5-----5-----5-----5--------
E|--------------------------------------------------3-----3--3--3--3--3--3--5-----5--5--5--5--5--5-----0-----0-----

Stave 12:

E|--------------------------------------------------------------------------------------------------------
B|--------------------------------------------------------------------------------------------------------
G|--------------------------------------------------------------------------------------------------------
D|--7--7--7--7--7--7--7--7--7--10--10--10--9--9--9--9--7--7--7--7--7--7--7--7--7--12--12--12--9--9--9--9--
A|--7--7--7--7--7--7--7--7--7--10--10--10--9--9--9--9--7--7--7--7--7--7--7--7--7--12--12--12--9--9--9--9--
E|--7--7--7--7--7--7--7--7--7--10--10--10--9--9--9--9--7--7--7--7--7--7--7--7--7--12--12--12--9--9--9--9--

Stave 13:

E|-----------------------------------------------------------------------------------------------
B|-----------------------------------------------------------------------------------------------
G|-----------------------------------------------------------------------------------------------
D|--7--7--7--7--7--7--7--7--7--10--10--10--9--9--9--9-----------------------------------------9--
A|--7--7--7--7--7--7--7--7--7--10--10--10--9--9--9--9--10--10--10--9--9--9--7--7--7--7--7--7--7--
E|--7--7--7--7--7--7--7--7--7--10--10--10--9--9--9--9--------------------------------------------

Stave 14:

E|--------------------------------------------------------------------------------------------------------
B|--------------------------------------------------------------------------------------------------------
G|--------------------------------------------------------------------------------------------------------
D|--12--12--12--10--10--10--9--9--7--7--7--7--7--7--7--7--5--5--5--4--4--4--4--4--2--2--2--2--2--2--2--2--
A|--12--12--12--10--10--10--9--9--7--7--7--7--7--7--7--7--5--5--5--4--4--4--4--4--2--2--2--2--2--2--2--2--
E|--12--12--12--10--10--10--9--9--7--7--7--7--7--7--7--7--5--5--5--4--4--4--4--4--2--2--2--2--2--2--2--2--

Stave 15:

E|-----------------------------------------------------------------------------------------------------------
B|-----------------------------------------------------------------------------------------------------------
G|-----------------------------------------------------------------------------------------------------------
D|--7--7--7--8--8--8--8--8--7--7--7--5--5--5--5--5--7-----------------------7--7--7--8--8--8--8--8--7--7--7--
A|--5--5--5--5--5--5--5--5--5--5--5--5--5--5--5--5--5-----------------------5--5--5--5--5--5--5--5--5--5--5--
E|-----------------------------------------------------------------------------------------------------------

Stave 16:

E|--------------------------------------------------------------------------------------------------------------------------------------------------------------------
B|--------------------------------------------------------------------------------------------------------------------------------------------------------------------
G|--------------------------------------------------------------------------------------------------------------------------------------------------------------------
D|--10--10--10--10--10--10--10--10--10--10--10--10--10--8--8--8--8--8--8--7v-----8--5v--------7--7--7--8--8--8--8--8--7--7--7--5--5--5--5--5--7--7--7--8--8--8--8--8--
A|--------------------------------------------------------------------------------------------5--5--5--5--5--5--5--5--5--5--5--5--5--5--5--5--5--5--5--5--5--5--5--5--
E|--------------------------------------------------------------------------------------------------------------------------------------------------------------------

Stave 17:

E|----------------------------------------------------------------------------------------------------------------------------------------------------
B|----------------------------------------------------------------------------------------------------------------------------------------------------
G|---------------------------------------------------------------8--7-------------7--7--7--8--8--8--8--8--7--7--7-------------------------------------
D|--5--5--5--10--10--10--10--10--10--10--10--10--10--10--10--10--------8--7--10v-----------------------------------8--8--8--8--7v--------8--5v--------
A|--5--5--5-----------------------------------------------------------------------5--5--5--5--5--5--5--5--5--5--5--5--5--5----------------------------
E|----------------------------------------------------------------------------------------------------------------------------------------------------

Stave 18:

E|-----------------------------------------------------------------------------------------------------------------------------------
B|-----------------------------------------------------------------------------------------------------------------------------------
G|-----------------------------------------------------------------------------------------------------------------------------------
D|--7-----------7-----7-----8-----------8-----8-----7--7--7--8--8--8--8--8--7--7--7--5--5--5--5--5--7--7--7--8--8--8--8--8--7--7--7--
A|--5-----5--5--5--5--5--5--5-----5--5--5--5--5--5--5--5--5--5--5--5--5--5--5--5--5--5--5--5--5--5--5--5--5--5--5--5--5--5--5--5--5--
E|-----------------------------------------------------------------------------------------------------------------------------------

Stave 19:

E|-----------------------------------------------------------------------------------------------------
B|-----------------------------------------------------------------------------------------------------
G|-----------------------------------------------------------------------------------------------------
D|--10--10--10--10--10--10--10--10--10--10--10--10--10--10-----7-----7h8p7\5-----------10--------------
A|-------------------------------------------------------------------------------0--0------------------
E|-----------------------------------------------------------------------------------------------------

http://www.guitartabcreator.com
Guitar Tab Creator is intended to store guitar tab created through the tool. It currently does not support in-line text editing. Any text you place in here will be lost. If you need to comment on your tab, please use the "Tab Notes" section located below.