Sound will begin in 5 seconds

spotlight

Chords
01234567891011121314151617181920212223
E
B
G
D
A
E
B
0 1 2 3 4 5 6 7 8 9 10 11 12 13 14 15 16 17 18 19 20 21 22 23
Song Science #1: How Pros Use 6 Chords to Write Hit Songs
(/) Slide Up  (\) Slide Down  (h) Hammer On  (p) Pull Off  (b) Bend (r) Release (v) Vibrato

Stave 1:

E|--------------------------------------------------------------------------------------------------------------------------------------------------
B|--------------------------------------------------------------------------------------------------------------------------------------------------
G|--------------------------------------------------------------------------------------------------------------------------------------------------
D|--------------------------------------------------------------------------------------------------------------------------------------------------
A|--------------------------------------0--0--0--0--0--0--------------------------------------------------------3--3--3--3--3--3--0--0--0--0--0--0--
E|--0--0--0--0--0--0--3--3--3--3--3--3--------------------5--5--5--5--5--5--0--0--0--0--0--0--3--3--3--3--3--3--------------------------------------

Stave 2:

E|--------------------------
B|--------------------------
G|--------------------------
D|--0-----3-----7-----5-----
A|--0-----3-----7-----5-----
E|--0-----3-----7-----5-----

Stave 3:

E|--------------------------------------------------------------------------------------------------------
B|--------------------------------------------------------------------------------------------------------
G|--------------------------------------------------------------------------------------------------------
D|--0--------------3--------------5--------------6--5--3--2--0--------------3--------------5--------------
A|--0--------------3--------------5--------------6--5--3--2--0--------------3--------------5--5--3--5-----
E|--0--0--0--0--0--3--3--3--3--3--5--5--5--5--5--6--5--3--2--0--0--0--0--0--3--3--3--3--3--5--------------

Stave 4:

E|-------------------------------------------------------------------------------------------------------------
B|-------------------------------------------------------------------------------------------------------------
G|-------------------------------------------------------------------------------------------------------------
D|--7--7--7--7--7--7--7--7--7--7--8--8--8--8--8--8--8--8--8--8--7--------------7--------------7--------------5b
A|--5--5--5--5--5--5--5--5--5--5--6--6--6--6--6--6--6--6--6--6--5--5--5--7--8--5--5--5--7--8--5--5--5--7--8----
E|-------------------------------------------------------------------------------------------------------------

Stave 5:

E|------------------------------------------------------------------------------------------------------------------------------------
B|------------------------------------------------------------------------------------------------------------------------------------
G|------------------------------------------------------------------------------------------------------------------------------------
D|--9--9--9--9--9--9--9--9--9--9--12--12--12--12--12--12--12--12--12--12--7--7--7--7--7--7--7--7--7--7--7--7--7--7--7--7--7--7--7--7--
A|--7--7--7--7--7--7--7--7--7--7--10--10--10--10--10--10--10--10--10--10--5--5--5--5--5--5--5--5--5--5--5--5--5--5--5--5--5--5--5--5--
E|------------------------------------------------------------------------------------------------------------------------------------

Stave 6:

E|--------------------------------------------------------------------------------------------------------------------------------------------------------------------
B|--------------------------------------------------------------------------------------------------------------------------------------------------------------------
G|--------------------------------------------------------------------------------------------------------------------------------------------------------------------
D|--9--9--9--9--9--9--9--9--9--9--12--12--12--12--12--12--12--12--12--12--7--7--7--7--7--7--7--7--7--7-------------------------------0--------------3-----------------
A|--7--7--7--7--7--7--7--7--7--7--10--10--10--10--10--10--10--10--10--10--5--5--5--5--5--5--5--5--5--5-------------------------------0--------------3-----------------
E|------------------------------------------------------------------------------------------------------0--0--0--0--0--0--0--0--9\0--0--0--0--0--0--3--3--3--3--3-----

Stave 7:

E|--------------------------------------------------------------------------------------------
B|--------------------------------------------------------------------------------------------
G|--------------------------------------------------------------------------------------------
D|--3--------------3--------------0--------------5--------------5--------------5--------------
A|--3--------------3--------------0--------------5--------------5--------------5--------------
E|--3--3--3--3--3--3--3--3--3--3--0--0--0--0--0--5--5--5--5--5--5--5--5--5--5--5--5--5--5--5--

Stave 8:

E|----------------------------------------------------------------------------------------------------------------------------------------------
B|----------------------------------------------------------------------------------------------------------------------------------------------
G|----------------------------------------------------------------------------------------------------------------------------------------------
D|--7--7--7--7--7--7--7--7--7--7--9--9--9--9--9--9--9--9--9--9--10--10--10--10--10--10--10--10--10--10--12--12--12--12--12--12--12--12--12--12--
A|--5--5--5--5--5--5--5--5--5--5--7--7--7--7--7--7--7--7--7--7--8---8---8---8---8---8---8---8---8---8---10--10--10--10--10--10--10--10--10--10--
E|----------------------------------------------------------------------------------------------------------------------------------------------

Stave 9:

E|--------------
B|--------------
G|--------------
D|--0--0--0--0--
A|--0--0--0--0--
E|--0--0--0--0--

Stave 10:

E|----------------------------------------------------------------------------------------------------------------------------------------------
B|----------------------------------------------------------------------------------------------------------------------------------------------
G|----------------------------------------------------------------------------------------------------------------------------------------------
D|--9--9--9--9--9--9--9--9--9--9--9--9--9--9--9--9--9--9--9--9--11--11--11--11--11--11--11--11--11--11--11--11--11--11--11--11--11--11--11--11--
A|--7--7--7--7--7--7--7--7--7--7--7--7--7--7--7--7--7--7--7--7--9---9---9---9---9---9---9---9---9---9---9---9---9---9---9---9---9---9---9---9---
E|----------------------------------------------------------------------------------------------------------------------------------------------

http://www.guitartabcreator.com
Guitar Tab Creator is intended to store guitar tab created through the tool. It currently does not support in-line text editing. Any text you place in here will be lost. If you need to comment on your tab, please use the "Tab Notes" section located below.