Sound will begin in 5 seconds

new song

Chords
01234567891011121314151617181920212223
E
B
G
D
A
E
B
0 1 2 3 4 5 6 7 8 9 10 11 12 13 14 15 16 17 18 19 20 21 22 23
Song Science #1: How Pros Use 6 Chords to Write Hit Songs
(/) Slide Up  (\) Slide Down  (h) Hammer On  (p) Pull Off  (b) Bend (r) Release (v) Vibrato

Stave 1:

E|--------------------------------------------------
B|--------------------------------------------------
G|--------------------------------------------------
D|--4--------------2--------------1--------------0--
A|--4--------------2--------------1--------------0--
E|--4--------------2--------------1--------------0--

Stave 2:

E|-----------------------------------------------------------------------------------------------------------------------------------------------
B|-----------------------------------------------------------------------------------------------------------------------------------------------
G|-----------------------------------------------------------------------------------------------------------------------------------------------
D|--4--4--4--4--4--4--4--4--4--4--4--4--4--4--4--2--2--2--2--2--2--2--2--2--2--2--2--2--2--2--2--1--1--1--1--1--1--1--1--1--1--1--1--1--1--1--1--
A|--4--4--4--4--4--4--4--4--4--4--4--4--4--4--4--2--2--2--2--2--2--2--2--2--2--2--2--2--2--2--2--1--1--1--1--1--1--1--1--1--1--1--1--1--1--1--1--
E|--4--4--4--4--4--4--4--4--4--4--4--4--4--4--4--2--2--2--2--2--2--2--2--2--2--2--2--2--2--2--2--1--1--1--1--1--1--1--1--1--1--1--1--1--1--1--1--

Stave 3:

E|--------------------------------------------------
B|--------------------------------------------------
G|--------------------------------------------------
D|--0--0--0--0--0--0--0--0--0--0--0--0--0--0--0--0--
A|--0--0--0--0--0--0--0--0--0--0--0--0--0--0--0--0--
E|--0--0--0--0--0--0--0--0--0--0--0--0--0--0--0--0--

Stave 4:

E|--------------------------------------------------------------------------------------------------------------------------------------
B|--------------------------------------------------------------------------------------------------------------------------------------
G|--------------------------------------------------------------------------------------------------------------------------------------
D|--0--0--0--0--0--0--0--0--0--0--0--0--0--0--0--0--4--------4--------4--------4--------0--0--0--0--0--0--0--0--0--0--0--0--0--0--0--0--
A|--0--0--0--0--0--0--0--0--0--0--0--0--0--0--0--0--4--------4--------4--------4--------0--0--0--0--0--0--0--0--0--0--0--0--0--0--0--0--
E|--0--0--0--0--0--0--0--0--0--0--0--0--0--0--0--0--4--4--4--4--4--4--4--4--4--4--4--4--0--0--0--0--0--0--0--0--0--0--0--0--0--0--0--0--

Stave 5:

E|-----------------------------------------------------
B|-----------------------------------------------------
G|-----------------------------------------------------
D|-----------------------------------------------------
A|-----------------------------------------------------
E|--4--4--4--4--4--4--4--4--2--2--2--2--2--2--2--2-----

Stave 6:

E|-----------------------------------------------------
B|-----------------------------------------------------
G|-----------------------------------------------------
D|--8--------------------------------------------------
A|--8--------------------------------------------------
E|--8--8--8--8--6--6--6--8--8--8--8--8--8--8--8--8--8--

Stave 7:

E|------------------------------------------------------------------------------------------------------
B|------------------------------------------------------------------------------------------------------
G|------------------------------------------------------------------------------------------------------
D|--8--8--8--8--10--10--10--10--11--11--11--11--13--13--13--13--11--11--11--11--10--10--10--10--8-------
A|--8--8--8--8--10--10--10--10--11--11--11--11--13--13--13--13--11--11--11--11--10--10--10--10--8-------
E|--8--8--8--8--10--10--10--10--11--11--11--11--13--13--13--13--11--11--11--11--10--10--10--10--8--8--8b

Stave 8:

E|-----------
B|-----------
G|-----------
D|--8--6--8--
A|--8--6--8--
E|--8--6--8--

Stave 9:

E|-----------------
B|-----------------
G|-----------------
D|--8--10--11--13--
A|--8--10--11--13--
E|--8--10--11--13--

Stave 10:

E|-----------------
B|-----------------
G|-----------------
D|--8--10--11--13--
A|--8--10--11--13--
E|--8--10--11--13--

http://www.guitartabcreator.com
Guitar Tab Creator is intended to store guitar tab created through the tool. It currently does not support in-line text editing. Any text you place in here will be lost. If you need to comment on your tab, please use the "Tab Notes" section located below.