Sound will begin in 5 seconds

melancholy

Chords
01234567891011121314151617181920212223
E
B
G
D
A
E
B
0 1 2 3 4 5 6 7 8 9 10 11 12 13 14 15 16 17 18 19 20 21 22 23
Song Science #1: How Pros Use 6 Chords to Write Hit Songs
(/) Slide Up  (\) Slide Down  (h) Hammer On  (p) Pull Off  (b) Bend (r) Release (v) Vibrato

Stave 1:

E|--------------------------------------------------
B|--------------------------------------------------
G|--------------------------------------------------
D|--0--0--3--3--2--2--3--3--0--0--5--5--3--3--2--2--
A|--------------------------------------------------
E|--------------------------------------------------

Stave 2:

E|------------------------------------------------------------------------------
B|------------------------------------------------------------------------------
G|-----2h3r2--------------------------------------------------------------------
D|------------3--2--2h3r2--3/5--------------------------0--0--3--5--7--5--3--0--
A|------------------------------------------------------0--0--3--5--7--5--3--0--
E|------------------------------------------------------0--0--3--5--7--5--3--0--

Stave 3:

E|-----------------------------------------------------------------------------------------------------
B|-----------------------------------------------------------------------------------------------------
G|-----------------------------------------------------------------------------------------------------
D|-----------------------3--5--------------------3--5--------------------3--5--------------3--5--3--2--
A|-----------------------3--5--------------------3--5--------------------3--5--------------3--5--3--2--
E|-----0--0--0--0--0--0--3--5--0--0--0--0--0--0--3--5--0--0--0--0--0--0--3--5--0--0--0--0--3--5--3--2--

Stave 4:

E|--------------------------------------------------------------------
B|--------------------------------------------------------------------
G|--------------------------------------------------------------------
D|-----------------------3--5--------------3--5--3--2--3--5--3--2--0--
A|-----------------------3--5--------------3--5--3--2--3--5--3--2--0--
E|--0--0--0--0--0--0--0--3--5--0--0--0--0--3--5--3--2--3--5--3--2--0--

Stave 5:

E|-----------------------------
B|-----------------------------
G|-----------------------------
D|-----0--0--3--5--7--5--3--0--
A|-----0--0--3--5--7--5--3--0--
E|-----0--0--3--5--7--5--3--0--

Stave 6:

E|--------------------------------------------------------
B|--------------------------------------------------------
G|--------------------------------------------------------
D|-----0--3--7--5--0--3--5--3--0--3--5--3--0--3--5--3--2--
A|-----0--3--7--5--0--3--5--3--0--3--5--3--0--3--5--3--2--
E|-----0--3--7--5--0--3--5--3--0--3--5--3--0--3--5--3--2--

Stave 7:

E|-----------------------------------------------------------------------------
B|-----------------------------------------------------------------------------
G|-----------------------------------------------------------------------------
D|-----0--3--7--5--------------------------------------0-----0-----0--------0--
A|-----0--3--7--5--------------------------------------0-----0-----0--------0--
E|-----0--3--7--5--5--5--5--5--5--5--5--5--5--5--5--5--0-----0-----0--0--0--0--

Stave 8:

E|----------------------------------------------------
B|----------------------------------------------------
G|----------------------------------------------------
D|-----3--3--3--3--3--3--3\1--3--3--3--3--3--3--------
A|-----3--3--3--3--3--3-------3--3--3--3--3--3--5--3--
E|-----3--3--3--3--3--3-------3--3--3--3--3--3--3--1--

Stave 9:

E|--------------------------------------------------------------------------------------------------
B|--------------------------------------------------------------------------------------------------
G|--------------------------------------------------------------------------------------------------
D|--5--5--5--5--5--5--5\3--5--5--5--5--5--5-----------------------------14--14--14--12--------------
A|--5--5--5--5--5--5-------5--5--5--5--5--5--7--5-----4--5--------------14--14--14--12--------------
E|--5--5--5--5--5--5-------5--5--5--5--5--5--5--3-----2--3------------------------------------------

Stave 10:

E|-----------------------------------------------------
B|-----------------------------------------------------
G|-----------------------------------------------------
D|-----7-----------7-----------7-----------8--8--8--8--
A|-----7-----------7-----------7-----------8--8--8--8--
E|-----7--7--7--7--7--7--7--7--7--7--7--7--8--8--8--8--

Stave 11:

E|--------------------------------------------------------------------------
B|--------------------------------------------------------------------------
G|--------------------------------------------------------------------------
D|--7-----------7-----------7-----------8--8--8--8--8--8--8--8--8--8--8--8--
A|--7-----------7-----------7-----------8--8--8--8--8--8--8--8--8--8--8--8--
E|--7--7--7--7--7--7--7--7--7--7--7--7--8--8--8--8--8--8--8--8--8--8--8--8--

Stave 12:

E|------------------------------------------------------------------------------------------------------
B|------------------------------------------------------------------------------------------------------
G|------------------------------------------------------------------------------------------------------
D|--9--9--9--9--9--9--9--9--9--9--9--9--10--10--10--10--9--9--9--9--9--9--9--9--9--9--9--9--7--7--7--7--
A|--7--7--7--7--7--7--7--7--7--7--7--7--8---8---8---8---7--7--7--7--7--7--7--7--7--7--7--7--5--5--5--5--
E|------------------------------------------------------------------------------------------------------

Stave 13:

E|-----------------------
B|-----------------------
G|-----------------------
D|--5--4--2--------------
A|--3--2--0--------------
E|-----------------------

Stave 14:

E|--------------------------------------------------------------------------------------------------------------------------------
B|--------------------------------------------------------------------------------------------------------------------------------
G|--------------------------------------------------------7-----7--7--7--7--4-----4--4--4--4--4-----4--4--4--4--7--5--4--7--5--4--
D|--2-----2--2--2--2--4-----4--4--4--4--5-----5--5--5--5--5-----5--5--5--5--2-----2--2--2--2--2-----2--2--2--2--5--3--2--5--3--2--
A|--0-----0--0--0--0--2-----2--2--2--2--3-----3--3--3--3--------------------------------------------------------------------------
E|--------------------------------------------------------------------------------------------------------------------------------

Stave 15:

E|--------------------------------------------------------------------------------------------------------------
B|--------------------------------------------------------------------------------------------------------------
G|-----------------------------------------------2--2--2--4--4--4--7--5--4--7--5--4--7--5--4--4--4--4--4--4--4--
D|-----2-----2--2--2--2--4-----5-----5--5--5--5--0--0--0--2--2--2--5--3--2--5--3--2--5--3--2--2--2--2--2--2--2--
A|-----0-----0--0--0--0--2-----3-----3--3--3--3-----------------------------------------------------------------
E|--------------------------------------------------------------------------------------------------------------

Stave 16:

E|----------------------------------------------------------------------------------------------------------------------
B|----------------------------------------------------------------------------------------------------------------------
G|----------------------------------------------------------------------------------------------------------------------
D|-----2--------------4--------------5--------------7--------------9--------------10--------------9--------9--10--9--7--
A|-----0--0--0--0--0--2--2--2--2--2--3--3--3--3--3--5--5--5--5--5--7--7--7--7--7--8---8--8--8--8--7--7--7--7--8---7--5--
E|----------------------------------------------------------------------------------------------------------------------

http://www.guitartabcreator.com
Guitar Tab Creator is intended to store guitar tab created through the tool. It currently does not support in-line text editing. Any text you place in here will be lost. If you need to comment on your tab, please use the "Tab Notes" section located below.