Sound will begin in 5 seconds

Road Trippin

Chords
01234567891011121314151617181920212223
E
B
G
D
A
E
B
0 1 2 3 4 5 6 7 8 9 10 11 12 13 14 15 16 17 18 19 20 21 22 23
Song Science #1: How Pros Use 6 Chords to Write Hit Songs
(/) Slide Up  (\) Slide Down  (h) Hammer On  (p) Pull Off  (b) Bend (r) Release (v) Vibrato

Stave 1:

E|-----3--------------|--3-----------3-----|--------------------|-----------------------------
B|-----------0--------|--------0-----------|-----5--------------|--4--------------4-----------
G|--------------------|--------------------|-----------0--------|-----------0-----------------
D|--2-----2-----2-----|-----2-----2-----2--|--------------------|-----------------------------
A|--------------------|--------------------|--3--3--3-----3-----|--2-----2-----2-----2--------
E|-----0--------------|--0-----------------|--------------------|-----------------------------

Stave 2:

E|-----3--------------|--3-----5-----3-----|--------------------|-----------------------------
B|-----------0--------|--------------------|-----5--------------|--4--------------4-----------
G|--------------------|--------------------|-----------0--------|-----------0-----------------
D|--2-----2-----2-----|-----2-----2-----2--|--------------------|-----------------------------
A|--------------------|--------------------|--3--3--3-----3-----|--2-----2-----2-----2--------
E|-----0--------------|--0-----------------|--------------------|-----------------------------

Stave 3:

E|--0-----------0-----|--------------------|--------------------|------------------------------
B|--------1-----------|--3-----------3-----|--5-----------5-----|--12----------12--------------
G|--------------------|--------0-----------|--------0-----------|------12--------------12------
D|-----2-----------2--|-----0-----------0--|-----5-----------5--|----------12--------------12--
A|--0--------0--------|--2--------2--------|--3--------3--------|--10--------------10----------
E|--------------------|--------------------|--------------------|------------------------------

Stave 4:

E|--------------------|--------------------|--------------------|-----------------------------
B|--8-----------8-----|--2-----------2-----|--5-----------5-----|--7-----------------7--------
G|--------7-----------|--------0-----------|--------5-----------|-----------5-----------------
D|-----9--------------|-----2--------------|-----5--------------|--------7--------------------
A|--7--------7--------|--0--------0--------|--3--------3--------|--5-----------5--------------
E|--------------------|--------------------|--------------------|-----------------------------

Stave 5:

E|--------------------|--------------------|--------------------|--5-----------------5--------
B|--8-----------8-----|--2-----------2-----|--5-----------5-----|-----------4-----------------
G|--------7-----------|--------0-----------|--------5-----------|--------5--------------------
D|-----9--------------|-----2--------------|-----5--------------|--4-----------4--------------
A|--7--------7--------|--0--------0--------|--3--------3--------|-----------------------------
E|--------------------|--------------------|--------------------|-----------------------------

Stave 6:

E|--------------------|--------------------|--------------------|--5-----------------5--------
B|--8-----------8-----|--2-----------2-----|--5-----------5-----|-----------4--------4--------
G|--------7-----------|--------0-----------|--------5-----------|-----------------------------
D|-----9--------------|-----2--------------|-----5--------------|--4-----4-----4--------------
A|--7--------7--------|--0--------0--------|--3--------3--------|-----------------------------
E|--------------------|--------------------|--------------------|-----------------------------

Stave 7:

E|-----------5--------|--14------------11--------------8-----|--------5-----------2-----------
B|-----4-----4--------|--13------------10--------------7-----|--------4-----------1-----------
G|--------------------|--14------------11--------------8-----|--------5-----------2-----------
D|--4-----4--------4--|--13-----10---------------7-----------|--4-----------1-----------1-----
A|--------------------|--------------------------------------|--------------------------------
E|--------------------|--------------------------------------|--------------------------------

Stave 8:

E|-----3-----------3--|-----------3--------|--------3-----------|-----3--------------3--------
B|-----------0--------|-----0--------------|--0-----------0-----|-----------0-----------------
G|--------------------|--------------------|--------------------|-----------------------------
D|--2-----2-----2-----|--2-----2-----2-----|-----2-----2--------|--2-----2-----2--------------
A|--------------------|--------------------|--------------------|-----------------------------
E|--------------------|--------------------|--------------------|-----------------------------

http://www.guitartabcreator.com
Guitar Tab Creator is intended to store guitar tab created through the tool. It currently does not support in-line text editing. Any text you place in here will be lost. If you need to comment on your tab, please use the "Tab Notes" section located below.