untitled 20/06/03

Chords

01234567891011121314151617181920212223
E
B
G
D
A
E
B
0 1 2 3 4 5 6 7 8 9 10 11 12 13 14 15 16 17 18 19 20 21 22 23
(/) Slide Up  (\) Slide Down  (h) Hammer On  (p) Pull Off  (b) Bend (r) Release (v) Vibrato

Stave 1:

E|-----------------------
B|--3--0--2--0--1--0--0--
G|-----------------------
D|--3--3--2--2--1--1--0--
A|-----------------------
E|-----------------------

Stave 2:

E|--------------------------------------------------------------------------------------------------
B|-----------3-----------3-----------3-----------3-----------0-----------0-----------0-----------0--
G|-----3-----------3-----------3-----------3-----------3-----------3-----------3-----------3--------
D|--2-----2-----2-----2-----2-----2-----2-----2-----2-----2-----2-----2-----2-----2-----2-----2-----
A|--------------------------------------------------------------------------------------------------
E|--------------------------------------------------------------------------------------------------

							http://www.guitartabcreator.com
Instruments
{"strings":[[[".",".",".",".",".",".","."],[3,0,2,0,1,0,0],[".",".",".",".",".",".","."],[3,3,2,2,1,1,0],[".",".",".",".",".",".","."],[".",".",".",".",".",".","."]],[[".",".",".",".",".",".",".",".",".",".",".",".",".",".",".",".",".",".",".",".",".",".",".",".",".",".",".",".",".",".",".","."],[".",".",".",3,".",".",".",3,".",".",".",3,".",".",".",3,".",".",".",0,".",".",".",0,".",".",".",0,".",".",".",0],[".",3,".",".",".",3,".",".",".",3,".",".",".",3,".",".",".",3,".",".",".",3,".",".",".",3,".",".",".",3,".","."],[2,".",2,".",2,".",2,".",2,".",2,".",2,".",2,".",2,".",2,".",2,".",2,".",2,".",2,".",2,".",2,"."],[".",".",".",".",".",".",".",".",".",".",".",".",".",".",".",".",".",".",".",".",".",".",".",".",".",".",".",".",".",".",".","."],[".",".",".",".",".",".",".",".",".",".",".",".",".",".",".",".",".",".",".",".",".",".",".",".",".",".",".",".",".",".",".","."]]],"numberofstrings":6,"notes":["E","B","G","D","A","E","B"],"capo":0,"stringnotes":["E4","B3","G3","D3","A2","E2"],"comments":["Stave 1:","Stave 2:"],"timing":[["W","W","W","W","W","W","W"],["W","W","W","W","W","W","W","W","W","W","W","W","W","W","W","W","W","W","W","W","W","W","W","W","W","W","W","W","W","W","W","W"]],"timingvisible":false,"tabcounter":32,"stave":1,"totalstaves":2,"instrument":"6guitar","selectedtuning":"6_standard","version":"13"}

Member for

3 months 1 week
Submitted by purplehoney on Tue, 2020-06-02 23:06