Sound will begin in 5 seconds

Inside Out

01234567891011121314151617181920212223
E
B
G
D
A
E
B
0 1 2 3 4 5 6 7 8 9 10 11 12 13 14 15 16 17 18 19 20 21 22 23
Song Science #1: How Pros Use 6 Chords to Write Hit Songs
(/) Slide Up  (\) Slide Down  (h) Hammer On  (p) Pull Off  (b) Bend (r) Release (v) Vibrato

Stave 1:

G|--------------------------------------------------------
D|--------------------------------------------------------
A|--0--0--0h2--2--3--3--3--2--2---------------------------
E|-------------------------------0--0--0h1--1h3--3--3--3--

Stave 2:

G|--------------------------------------------------------------------------------
D|--------------------------------------------------------------------------------
A|--0--0--0--0--0--0--0--0--2--2--3--3--2-----------------------------------------
E|-----------------------------------------0--0--0--0--0--0--0--0--1--1--3--3--3--

Stave 3:

G|------------------------------------------
D|------------------------------------------
A|--0--0h2--3-----------0--0h2--3-----------
E|-------------0--1--3-------------0--1--3--

Stave 4:

G|----------------------------------
D|--7--------7--------7--5--5--5h7--
A|-----0--0-----0--0----------------
E|----------------------------------

Stave 5:

G|---------------------------------------
D|-----------------------------10--8--7--
A|--8--8--8--8--8--8--7--7--7------------
E|---------------------------------------

Stave 6:

G|--------------------
D|--------------------
A|--------------------
E|--5--5--5--5--5--3--

Stave 7:

G|-----------------------------------------------------------
D|-----------------------------------------------------------
A|-----------------------------------------------------------
E|--5--5--5--5--5--5--1--1--1--1--5--5--5--5--5--5--1--1--1--

Stave 8:

G|------------------------------------
D|------------------------------------
A|------------------------------------
E|--5--5--5--5--3h5--5--5--5--5--3h5--

Stave 9:

G|------------------------------------
D|------------------------------------
A|------------------------------------
E|--7--7--7--7--5h7--7--7--7--7--5h7--

Stave 10:

G|---------------------------------------
D|---------------------------------------
A|---------------------------------------
E|--8--8--8--8--7h8--8--8--8--8--7h8--8--

Stave 11:

G|----------------------------------------------
D|----------------------------------------------
A|----------------------------------------------
E|--10--10--10--10--8h10--10--10--10--10--8h10--

Stave 12:

G|-----------2--------------5-----------------7--------10--10--10--10--
D|--------2-----2--------------5-----------7---------------------------
A|--0--0-----------3--3--3--------5--5--5--------8--8------------------
E|---------------------------------------------------------------------

Stave 13:

G|--------------------------------------------------
D|--------------------------------------------------
A|--0--0--0--0--2--2--2--2--3--3--3--3--5--5--5--5--
E|--------------------------------------------------

Stave 14:

G|-----------------------------------
D|-----------------------------------
A|--0--2--2--3--3--2--0--2--0--2--2--
E|-----------------------------------

Stave 15:

G|-----
D|-----
A|-----
E|--0--

http://www.guitartabcreator.com
Guitar Tab Creator is intended to store guitar tab created through the tool. It currently does not support in-line text editing. Any text you place in here will be lost. If you need to comment on your tab, please use the "Tab Notes" section located below.