Sound will begin in 5 seconds

The Sizlacks - Pikachu on Acid (Demo 2)

01234567891011121314151617181920212223
E
B
G
D
A
E
B
0 1 2 3 4 5 6 7 8 9 10 11 12 13 14 15 16 17 18 19 20 21 22 23
Song Science #1: How Pros Use 6 Chords to Write Hit Songs
(/) Slide Up  (\) Slide Down  (h) Hammer On  (p) Pull Off  (b) Bend (r) Release (v) Vibrato

Stave 1:

E|------------------------------------------
B|----------------------------------8h7--7--
G|-----------7h5-----------------7----------
D|--------7-------7-----7-----7-------------
A|-----7-------------7-----5----------------
E|--5---------------------------------------

Stave 2:

E|---------------------------------------------------10--10--10p8\7--8------
B|----------------------------------------------------------------------10--
G|--------5-----7b9--5-----7--7--7p5-----5----------------------------------
D|--5--7-----7----------7-------------7-----7--5--7-------------------------
A|--------------------------------------------------------------------------
E|--------------------------------------------------------------------------

Stave 3:

E|------------------------------------------
B|----------------------------------8p7--7--
G|-----------7p5-----------------7----------
D|--------7-------7-----7-----7-------------
A|-----7-------------7-----5----------------
E|--5---------------------------------------

Stave 4:

E|--11b13--11p10--8------11--10--10p8-------------10p8-------------
B|-------------------10----------------10--8--10--------10--8--10--
G|-----------------------------------------------------------------
D|-----------------------------------------------------------------
A|-----------------------------------------------------------------
E|-----------------------------------------------------------------

Stave 5:

E|----------------------------------------------------------------------------------
B|--10--8---------------------------------------------------------------------------
G|---------9--8--7------7--7h8p7--------------------------------------7b8b7---------
D|------------------10------------10--7------7--10----------7--10--7---------10--7--
A|---------------------------------------10---------10--10--------------------------
E|----------------------------------------------------------------------------------

Stave 6:

E|-----------------------------------
B|-----------------------------------
G|--7b8--7--7--7b8--7--7-------------
D|------------------------10------7--
A|----------------------------10-----
E|-----------------------------------

Stave 7:

E|--10b11--11p10--8------11--10--10p8-------------10p8-------------
B|-------------------10----------------10--8--10--------10--8--10--
G|-----------------------------------------------------------------
D|-----------------------------------------------------------------
A|-----------------------------------------------------------------
E|-----------------------------------------------------------------

Stave 8:

E|------------------------------------------
B|----------------------------------8p7--7--
G|-----------7p5-----------------7----------
D|--------7-------7-----7-----7-------------
A|-----7-------------7-----5----------------
E|--5---------------------------------------

Stave 9:

E|--10b11--11p10--8------11--10--10p8-------------10p8-------------
B|-------------------10----------------10--8--10--------10--8--10--
G|-----------------------------------------------------------------
D|-----------------------------------------------------------------
A|-----------------------------------------------------------------
E|-----------------------------------------------------------------

Stave 10:

E|----------------------------------------------------------------------------------
B|--10--8---------------------------------------------------------------------------
G|---------9--8--7------7--7h8p7--------------------------------------7b8b7---------
D|------------------10------------10--7------7--10----------7--10--7---------10--7--
A|---------------------------------------10---------10--10--------------------------
E|----------------------------------------------------------------------------------

http://www.guitartabcreator.com
Guitar Tab Creator is intended to store guitar tab created through the tool. It currently does not support in-line text editing. Any text you place in here will be lost. If you need to comment on your tab, please use the "Tab Notes" section located below.