Sound will begin in 5 seconds

(Hisaishi Joe) Howl's Moving Castle Theme - Sungha Jung

Chords
01234567891011121314151617181920212223
E
B
G
D
A
E
B
0 1 2 3 4 5 6 7 8 9 10 11 12 13 14 15 16 17 18 19 20 21 22 23
Song Science #1: How Pros Use 6 Chords to Write Hit Songs
(/) Slide Up  (\) Slide Down  (h) Hammer On  (p) Pull Off  (b) Bend (r) Release (v) Vibrato

Capo Fret 3

Stave 1:

E|--------------------------------------------------------------------------------2--
B|-----------------------------------------------------------------------------0-----
G|--4--5--4--5--4--5-----4-----4-----4--------------------------------------2--------
D|--------------------7-----7-----7-----5--7--5--7--5--7--4--------------1-----------
A|-----------------------------------------------------------7--6--3--2--------------
E|-----------------------------------------------------------------------------------

Stave 2:

E|-----------------------------------------------------------0-----0--0--------------
B|--------------------------------------------------------0--------0--5--3--0--3-----
G|----------4--5--------2--0-------0-------------------0--------5-----5-----------0--
D|-----2/5--------------1-----2/4-----2-----------2/5-----------5-----4-----------4--
A|--2-------------------2---------------------------------------------5--------------
E|----------5----------------------0--------0----------------5-----------------3-----

Stave 3:

E|-----------------2--0-----------0-----------------------------------
B|-----------3-----------3--2--3--3-----3--2--0-----------0-----------
G|--------0--------------2--------2--------2-----2--0--2-----2--------
D|-----4--------4--------3-----------0-----2-----0--------0-----2--4--
A|-----------------4--------------2--------0-----------------------2--
E|--3--------------------2-----------------------3--------2-----------

Stave 4:

E|----------------------------------------------
B|--7h10p8--7--10p8--7--------------------------
G|----------------------9--8--5--4--------------
D|----------------------------------------------
A|----------------------------------------------
E|----------------------------------------------

Stave 5:

E|---------------------------------------------------------------------------------------
B|-------------------------------------0----------------------------------------0--5-----
G|-----0--0-----0--0-----0--0----------------5--2p0-------0------------------0--------5--
D|-----2--2-----2--2-----2--2-----2/5-----------1----2/4-----2----------2/4-----------4--
A|-----------2-----------------2----------------2----------------------------------------
E|--0-----------------0----------------5--x---------------0-----2--2/3-------------5-----

Stave 6:

E|-----
B|--5--
G|-----
D|-----
A|-----
E|-----

http://www.guitartabcreator.com
Guitar Tab Creator is intended to store guitar tab created through the tool. It currently does not support in-line text editing. Any text you place in here will be lost. If you need to comment on your tab, please use the "Tab Notes" section located below.